E-Chords
Almafuerte

Almafuerte(Chords)

Almafuerte

Key: E
Transcribed by: Ricardo González 
Email: [email protected] 
 
 
INTRO: 
e-|---------------------------------|----|- 
B-|---------------------------------|----|- 
G-|-9-----------9-------------------|----|- 
D-|---9---8-------8---7-----5-0-4-0-|-x4-|- 
A-|-----7-----7-----7-----0---------|----|- 
E-|---------------------------------|----|- 
E5 De muy pibe me encontré, C5 A5 con tu estatua una tarde. E5 Luego de eso, comencé a leer C5 A5 tu nombre en muchas partes.
Riff 1 (con sordina de palma) 
 
e-|-----------------|----|- 
B-|-------8-7-------|----|- 
G-|-----9-----9-----|----|- 
D-|---9---------9-8-|-x2-|- 
A-|-7---------------|----|- 
E-|-----------------|----|- 
E5 Colectivos, comercios, salones. C5 A5 Bibliotecas Populares. Calles, barrios, pueblos, bares. Y sentí en mí de vos saber.
Riff 2:  
e-|--------------------|--------------------|- 
B-|--------------------|--------------------|- 
G-|-9-7-6-4---7-11-7-9-|-9-7-6-4---7-11-7-5-|- 
D-|-7-5-4-2---7-11-7-9-|-7-5-4-2---7-11-7-5-|- 
A-|-----------5--9-5-7-|-----------5--9-5-3-|- 
E-|--------------------|--------------------|- 
E5 C5 A5 En San Justo escuché, a mis abuelos nombrarte. Tuve suerte el día que a tus escritos llegué. Masticaste soledad, por no callar verdades. Y contra la ignorancia guerreaste, sin títulos que te respalden. Riff 2 E5 G5 D5 A5 Esta canción quiere tu nombre llevarse. E5 G5 D5 A5 Como se lleva mi voz para que guarde quien siente. E5 G5 D5 A5 Fue por querer, y por si alguno no sabe C5 D5 E5 que hice mío tu nombre, Almafuerte.

roll up this ad to continue

share this page

See Also: