E-Chords
Almafuerte

Alla En Tilcara(Chords)

Almafuerte

Key: Em
Em      G      D      Am            Em     G     D   Am 
e-|-0--3-5-7--5-3-5--3-2-0-|---------|-0--3-5-7--10-5--7-3-|---------|- 
B-|----------------------1-|---1-----|---------------------|---------|- 
G-|--------0---------------|-2-------|--------0------------|---------|- 
D-|---------------0--------|---------|--------------0------|-----0h2-|- 
A-|----------------------0-|-----0h2-|-------------------0-|-0h2-----|- 
E-|-0----------------------|---------|-0-------------------|---------|-
Em D/F# G Amanecí allá en Tilcara, Am Em D Riff 1 con los amigos de la indiada. Llevarme allí, quiso el destino. Junto con quienes mi camino comparten. Am C/B C D Em G Tal vez grabada en las pircas, mi voz, Am C D Em como un recuerdo haya quedado. Como grabado ha quedado en mi ser, de aquellos, su trato amable. Riff 2 Anochecí, allá en Tilcara, con los amigos que entre la indiada tengo. Y fuí feliz. Grata experiencia, al compartir su solitaria resistencia. Pueda este canto que cantando estoy, sumarle alivio a sus pesares. O contentar a quien guste de saber, que jamás te olvidaré. Me despedí, de madrugada, de quienes a cambio de nada me asistieron. Y fuí feliz, grata experiencia, al compartir su solitaria resistencia. Pueda este canto que cantando estoy, sumarle alivio a sus pesares. O contentar a quien guste de saber, que jamás lo olvidaré.
Riff 1: 
e-|-5-3-2-3-|- 
B-|---------|- 
G-|---------|- 
D-|---------|- 
A-|---------|- 
E-|---------|- 

Riff 2: 
e-|---------------|- 
B-|---------------|- 
G-|-------0-----0-|- 
D-|-----4-----4---|- 
A-|-2h3-----2-----|- 
E-|---------------|-

roll up this ad to continue

share this page

See Also: