E-Chords
All Dogs

That Kind Of Girl(Chords)

All Dogs

roll up this ad to continue

Key: Ab
Intro 

  Ab                                Eb          Db 
e|-------------------------------------------------------------------| 
B|-11--11--11--11--11--11--11--11------------------------------------| 
G|---11--11--11--11--11--11--11--11--12--12--12--12--10--10--10--10/-| 
D|-----------------------------------13--13--13--13--11--11--11--11/-| 
A|-------------------------------------------------------------------| 
E|-------------------------------------------------------------------| 

  Ab                                                    Eb          Db 
e|---------------------------------------------------------------------------------------| 
B|-11-11-11^11-11-11-11^11-11-11-11^11-11-11-11-11^11-11-12--12--12----------------------| 
G|-11-11-11-11-11-11-11-11-11-11-11-11-11-11-11-11-11-11-12--12--12--10--10--10--10--10/-| 
D|-------------------------------------------------------13--13--13--13--11--11--11--11/-| 
A|---------------------------------------------------------------------------------------| 
E|---------------------------------------------------------------------------------------| 

(though you could also do it this way, she definitely doesn't (the bends!)) 

  Ab               Eb       Db 
e|-/8-8-8-8-8-8-8-8-3-3-3-3--1-1-1-1-| 
B|---/9-9-9-9-9-9-9-4-4-4-4--2-2-2-2-| 
G|-----------------------------------| 
D|-----------------------------------| 
A|-----------------------------------| 
E|-----------------------------------|
Riff
  Ab5    C5  Db5 
e|-----------------------------------| 
B|-----------------------------------| 
G|--------5-5-6-6-6-6-6-6-6-6-6-6-6--| 
D|-6-6-x--5-5-6-6-6-6-6-6-6-6-6-6-6--| 
A|-6-6-x--3-3-4-4-4-4-4-4-4-4-4-4-4--| 
E|-4-4-x-----------------------------| 

  Ab5    C5  Db5           C5 
e|-----------------------------------| 
B|-----------------------------------| 
G|--------5-5-6-6-6-6-6-6-6-5-5-5-5--| 
D|-6-6-x--5-5-6-6-6-6-6-6-6-5-5-5-5--| 
A|-6-6-x--3-3-4-4-4-4-4-4-4-3-3-3-3--| 
E|-4-4-x-----------------------------| 
Verse Ab Eb Db And I know that I am always fucking up your world Ab Eb Db 'You are better off not messing with that kind of girl' Bridge Ab5 C5 Db5 What does that mean Ab C5 Db5 C5 when they say Ab5 C5 Db5 stay away from me? Ab5 C5 Db5 C5 What's that mean?
Ab5 C5 Ab5 Db5 If you're wanting something else then that's all you have to say Ab5 C5 Ab5 Clear water, love and health Db5 Then that's all you have to say. Ab5 Eb5 Db5 Not to hear my voice on the phone saying that I'm not ok Ab5 Eb5 Db5 I am underneath the water kicking every day
Bridge Ab5 C5 Db5 What's that mean Ab5 C5 Db5 C5 stay away from me? Ab5 C5 Db5 What's that mean? Ab5 C5 Db5 C5 Get away? Interlude Ab Eb Db Oooh
Ab5 C5 Ab5 Db5 If you're wanting something else then I hope you find it Ab5 C5 Ab5 Clear water, love and health - Db5 Then I hope you find it Ab5 Eb5 Db5 I don't wanna be the weight upon your shoulders when you wake Ab5 Eb5 Db I don't wanna drag you under kicking every day
Bridge Ab5 C5 Db5 What's that mean Ab5 C5 Db5 C5 stay away from me? Ab5 C5 Db5 What's that mean? Ab5 C5 Db5 C5 Get away? ********************* |x Dead note *********************
share this page

See Also: