E-Chords
All Dogs

How Long(Chords)

All Dogs

roll up this ad to continue

Key: Bb
Intro/main part 

   Bb    F         F 
e|-----------------------------------| 
b|-----------------------------------| 
G|--3-3-3-2-2-2-2-2-5-5-5-5-5-5-5-5--| 
D|--3-3-3-3-3-3-3-3-3-3-3-3-3-3-3-3--| 
A|-----------------------------------| 
E|-----------------------------------| 


Alt. verse part 

e|-------------------------------------| 
b|-------------------------------------| 
G|--3-2---3--2-----2-0---2--0----------| 
D|--3-3-3-3--3-3-3-3-3-3-3--3-3-3------| 
A|-------------------------------------| 
E|-------------------------------------| 


Chorus 

   Bb      F       F 
e|----------------------------| 
b|----------------------------| 
G|--3-3-3-3-2-2-2-2-5-5-5-5---| 
D|--3-3-3-3-3-3-3-3-3-3-3-3---| 
A|----------------------------| 
E|----------------------------| 

   Bb              Dm     C 
e|----------------------------| 
b|----------------------------| 
G|--3-3-3-3-3-3-3-3-7-7-7--5--| 
D|--3-3-3-3-3-3-3-3-5-5-5--5--| 
A|--1-1-1-1-1-1-1-1-5-5-5--3--| 
E|----------------------------| 
Verse Bb F Bb F I'm a gardener of getting what I want Bb F Where do I fit? Bb F Where do I fit? Bb F And all this heavy blood filling up my gut Bb F Where to put it? Bb F Where to put it? Bb F Only you will let me Bb F in when I'm tearing off my skin Bb F Bb F All these people that I've been hold knives
Bb F Bb Dm C How long, how long til I stop? Bb F Bb Dm C How long, how long til I?
Bb F Dm C Bb F Dm C Bb F Dm C Bb F Verse Bb F Bb F I'll be ready for the great flood when it comes in. Bb F Bb F When all of this unrest becomes part of marrow in my bones Bb F Where to put it? Bb F Where to put it? Bb F Only you will let me Bb F in when I'm tearing off my skinHow long til I stop? Bb F Only you Bb F Only you
Bb F Bb Dm C How long, how long til I stop? Bb F Bb Dm C How long, how long til I?
Bb F Dm C Bb F Dm C Bb F Dm C Bb F
share this page

See Also: