E-Chords
Alex Lloyd

Black The Sun(Chords)

Alex Lloyd

roll up this ad to continue

Key: Em
  Em Em/Eb G   C   D 

E |--0---0---3---0---2 
B |--0---0---0---1---3 
G |--0---0---0---0---2 
D |--2---1---0---2---0 
A |--2---2---2---3---0 
E |--0---0---3-------- 

    Em              Em/Eb            G                C 
E |-------------------------------------------------------------------- 
B |------0-------0-------0-------0-------0--------0--------1-------1--- 
G |----0---0---0---0---0---0---0---0---0---0----0---0---0----0---0---0- 
D |--2-------2-------1-------1-------0-------0------------------------- 
A |---------------------------------------------------3--------3------- 
E |--------------------------------------------------------------------
Em Em/Eb Black the sun G C Oh no, look at what we done Em Em/Eb Go away G C Oh no, won't you please stay? Em G C G And dream of me, I wish you would dream of me Em G C G And dream of me, I hope you will dream of me
    Em     Em/Eb    Em     Em/Eb 
E |------------------------------------ 
B |------0-------0-------0-------0----- 
G |----0---0---0---0---0---0---0---0--- 
D |--2-------1-------2-------1--------- 
A |------------------------------------ 
E |------------------------------------
Em Em/Eb Words we speak G C Pictures are the only things I keep Em Em/Eb Rinse my mind G C I'm sure it will join me in time Em G C G And dream of me, I wish you would dream of me Em G C G And dream of me, I hope you will dream of me D C Up on your feet, around the bend Em G Searching, I hope it never ends D C Walking your lovely street again Em G C G Where tide meets the shore, oh oh, oh oh Em G C G Ah ah oooh, oh oh, oh oh Em G C G Ah ah oooh, oh oh, oh oh
    Em              Em/Eb            G                C 
E |-------------------------------------------------------------------- 
B |------0---------------0---------------0-----------------1-------1--- 
G |----0---0-----------0---0-----------0---0------------0----0---0---0- 
D |--2---------------1---------------0-------0------------------------- 
A |---------------------------------------------------3--------3------- 
E |--------------------------------------------------------------------
Em G C G Dream of me, I wish you would black the sun Em G C G Dream of me, I hope they will black the sun Em G C G Dream of me, I wish you would black the sun Em G C G Dream of me, I hope they will black the sun Em G C G Dream of me, I wish you would black the sun... the sun.
share this page

See Also: