E-Chords
Alemão Ronaldo

Mentiras(Chords)

Alemão Ronaldo

roll up this ad to continue

Key: A
 
Intro:  A5 - D5 - C#5 - B5 - C#5 
(2 vezes) 
 
 
Verso 
A5                          D5   A5 
Não esqueci nossa conversa 
                             D5  A5 
ficou gravada no meu coração 
A5 
Aquelas frases tão espertas 
               D5  C#5  B5  C#5 
Você nem ligou 
 
A5                    D5   A5 
O telefone ficou mudo 
                             D5  A5 
Dava pra ouvir sua respiração 
A5                      
Eu me lembro de tudo  
                D5  C#5  B5  
O jogo terminou 
 
 
Pré Refrão 
C5                     A5 
Agora eu fico ali pensando 
C5                           E5 
Nos segredos que ninguem guardou 
C5                  A5 
Agora eu fico imaginando 
      F5                 D5      
As mentiras que você contou 
 
 
Refrão  2x 
 
G5         B5 
Mentiras 
                   A5    D5 
Não servem para nada 
G5     B5 
Mentiras 
       A5     G5      
já não servem mais 
 
Repete tudo e depois do refrão vem o solo 
 
Solo 
 
e|-----------------------------------| 
B|-----------------------------------| 
G|---------12-12-12----15^-14-12-14^-| 
D|---12/14----------14---------------| 
A|-----------------------------------| 
E|-----------------------------------| 
 
 
e|-----------------------------------| 
B|--16-16-16-16-------16-16-16-16----| 
G|--16-16-16-16-------16-16-16-16----| 
D|-----------------------------------| 
A|-----------------------------------| 
E|-----------------------------------| 
 
e|-----------------------------------| 
B|-----------------------------------| 
G|---------12-12-12----15^-14-12-14^-| 
D|---12/14----------14---------------| 
A|-----------------------------------| 
E|-----------------------------------| 
 
 
e|-----14-----14------------| 
B|-15^----15^----15/13------| 
G|--------------------------| 
D|--------------------------| 
A|--------------------------| 
E|--------------------------| 
 
 
e|-------------------------------------------| 
B|-------------------------------------------| 
G|-/2----4----4/7-------2---4----4/7----7/12-| 
D|-------------------------------------------| 
A|-------------------------------------------| 
E|-------------------------------------------| 
Refrão Acaba com as notas da introdução _______________________________________________________ Contribuição: João ´Pedro Do Nascimento Alves([email protected])
share this page

See Also: