E-Chords
Alemão Ronaldo

Fazê um bolo(Chords)

Alemão Ronaldo

roll up this ad to continue

Key: Bb
Intro: F, F#, Gm  F,F (2x) 
 
Junto com Intro (outro violão): 
       F           F#          Gm 
E|---------1-|---------2-|--------3-| 
B|-----------|-----------|----------| 
G|------2----|------3----|------4---| 
D|---3-------|---4-------|---5------| 
A|-----------|-----------|----------| 
E|-1---------|-2---------|-3--------|
Bb Sempre que chega o fim de semana, F Eu penso em ti convidar, D# Gm F pra toma um drinque,pegar um cinema e depois dançar... Bb Só que você nunca tem vontade, F e toda vez que eu telefono..ALOU D# Gm F Você atende e diz que não quer mais converça que meu papo é de dar sono... Bb Mas toda semana tem um 'Findi' F num findi desses eu consigo D# Gm F Descolar uma receita garantida pra fazer bolo contigo Ref: D# Numa confeitaria, Gm ou na danceteria, D# Cm F ou na bilheteria do cinema, pra ver um filme de rock Bb F Mas toda semana é assim e assim fico cansado... D# Gm F Então eu deito,eu durmo,eu sonho que você tá do meu lado Ref:(2x) Intro (2x) Bb F Toda fantasia tem um fim,e no fim delas fico triste, D# Gm F Mas num domingo desse eu queria ver se você realmente existe! Refrão (repete várias vezes)! Junto nos versos que têm o Bb fazer (outro violão com palm muting): Bb F D#
E|------------------|------------------| 
B|------------------|------------------| Aqui, esse violão, 
G|-3-3-3-3-3-3-3-3--|-2-2-2-2-3h2-2~~--|   dedilha até o 
D|--3-3-3-3-3-3-3-3-|--3-3-3-3---3-----| próximo 'Bb', ou 
A|------------------|------------------| acompanha o violão 
E|------------------|------------------|    principal
share this page

See Also: