E-Chords
Alemão Ronaldo

Farol(Chords)

Alemão Ronaldo

roll up this ad to continue

Key: E
Letra: Alemão Ronaldo 
Intérprete: Alemão Ronaldo  
 
 
Fárol  
Intro:E F#m A  
e--------------------------------------------------------------------------------------------  
B-------------------------------------------------------------------------------------------  
G--1-2-4---1-2-4-6-4---1-2-4---1-2-4-6-4--2-2-1--2-4-2-1----------2-4-2-1--  
D----------------------------------------------------------------------4-4-2---------------4-4-2  
A------------------------------------------------------------------------------------------  
E----------------------------------------------------------------------------------------  
 
e-------------------------------  
B------------------------------  
G------------------------------  
D---4-6-4-2------------------  
A------------------------------  
E---------------2~2~-0------ 
E Ando em busca de soluçoes F#m entre ideias e opinioes A C#m B A a inveja solta nas calçadas numa praia muita gente reluzente,visual C#m B A D A E um lual é tão legal a solidão do farol mostrando o rumo do azul E Abandonou supertiçoes F#m velhas lendas e religioes A C#m B A a inveja solta nas calçadas sua senha sua trilha seu sinal rock'n'roll C#m B A D A E um lual é tão legal a solidão do farol mostrando o rumo do azul C#m B O futuro é difícil de encontrar C#m E é que tudo tem seu tempo C#m B C#m B A de real para o real nem quero saber Intro SOLO DO INÍCIO
share this page

See Also: