E-Chords
Alemão Ronaldo

Azulado(Chords)

Alemão Ronaldo

roll up this ad to continue

Key: G
INTRO: (G Am) 2x 
 
G Am 
Eu canto para os que cruzaram a linha / Ousaram sentir a força do invisível 
G Am 
Que derreteram suas cabeças / Sob um céu estrelado 
G Am 
Eu canto para os meninos e meninas / Assassinados por uma metralhadora verde 
G Am 
Que viveram e morreram cedo / Imaginando o paraíso 
G Am 
Eu canto para os meus velhos amigos / Perdidos no tempo ou numa esquina qualquer 
G Am 
E pra quem se arrebenta de saudade / E adormece chorando 
 
Refrão:  
Em Am 
E um pouco pra nós que somos loucos 
Em Am 
Eu canto pra nós que somos loucos 
 
G Am 
Eu canto para os jovens e velhos poetas / E suas peque nas tragédias de álcool 
G Am 
Cansados corpos sobre o sol / Falando a fala inútil 
G Am 
Eu canto para banir as velhas caras sonolentas / E seus papéis caducos 
G Am 
A palavra é bela e perigosa / E corta fundo 
 
Refrão 
 
SOLO: 
e----------------------------------12-------------------------------------------------| 
B--12-14-12-12--12-14-12-12--12-14----12----------------------------12-12--12-14-14---| 
G-----------------------------------------11-12-11-11-12-12--11-12--------------------| 
D-------------------------------------------------------------------------------------| 
A-------------------------------------------------------------------------------------| 
E-------------------------------------------------------------------------------------| 
 
e----------------------------------12-------------------------------------------------| 
B--12-14-12-12--12-14-12-12--12-14----12----------------------------------------------| 
G-----------------------------------------11-12-11-12-11-12-11-12---------------------| 
D-----------------------------------------------------------------14------------------| 
A-------------------------------------------------------------------------------------| 
E-------------------------------------------------------------------------------------| 
G Am Eu canto para os homens terem a fina estirpe / Dos animais G Am Que mostram com mais coragem / o seu verdadeiro amor G Am Eu canto com toda a esperança azul / que me dá de presente G Am O pequeno deus / Que habita em minha casa Refrão 2x
share this page

See Also: