E-Chords
Airbag

La Despedida De La Gitana(Chords)

Airbag

Key: Ebm
Este tema es bastante fácil de tocar y no creo que tengan 
mayores complicaciones para ejecutarlo. 

El tema esta en G#m.
Durante toda la canción las notas, que ovbiamente son quintas, 
quedan sonando o colgadas. 

Ebm B Y si te vás no habrá nadie aquí, G#m F# para que pueda ser a mi sentir, (F#)(C#) Ebm B es que yo estoy muriendo por amor, G#m F# sin tí no puedo mas seguir.
F# C# Quiero ser el barco que navega por tus ojos, B F# C# naufragar por siempre en esos mares de tu rostro, F# C# sabes que te quiero y que ya no puedo mas, B F# C# he intentado todo y no te puedo conquistar. Ebm G#m Y si algún día yo soy parte de tus sueños, C# Ebm quiero que me digas que será cuestión de tiempo, F# C# como duele que esto ya no pueda funcionar, B C# contigo la luna yo podría conquistar. Ebm B Y si te vás no habrá nadie aquí, G#m F# para que pueda ser a mi sentir, (F#)(C#) Ebm B es que yo estoy muriendo por amor, G#m F# sin tí no puedo mas seguir. F# C# Dices que es muy chico el lugar que hay en mi corazón, B F# C# porque con el tiempo se lo ha robado tu amor, F# C# es por eso que hoy te pido esta oportunidad, B F# C# eres tu la única que vidas me puede sanar. Ebm G#m Y si algun día yo soy parte de tus sueños, C# Ebm quiero que me digas que será cuestion de tiempo, F# C# como duele que esto ya no pueda funcionar, B C# contigo la luna yo podría conquistar. {ESTRIBILLO}:
Ebm B Y si te vás no habrá nadie aquí, G#m F# para que pueda ser a mi sentir, (F#)(C#) Ebm B es que yo estoy muriendo por amor, G#m F# sin tí no puedo mas seguir.
{SOLO}: Este solo, particularmente, no es muy complicado. Si lo practican un poco seguro que les sale. Además suena bastante bien. La tonalidad es en G#m como todo el tema. Base del solo: F# - C# - B - C#
e|--14-12-11----12-11-------11------------------------------------------------ 
B|-----------14-------14-12----14-12-11-14-12-11----12-11-------11------------ 
G|-----------------------------------------------13-------13-11----13-11-13~-- 
D|---------------------------------------------------------------------------- 
A|---------------------------------------------------------------------------- 
E|---------------------------------------------------------------------------- 



e|--11-9-7----9-7------7--------------------------------------- 
B|---------11-----11-9---11-9-7-11-9-7---9-7-----7------------- 
G|-------------------------------------9-----9-8---9-8-6-6/8~-- 
D|------------------------------------------------------------- 
A|------------------------------------------------------------- 
E|------------------------------------------------------------- 


                                                                         
e|-----------------------11-12-14-------------------------- 
B|--------------11-12-14----------14-12-11--14br-11\9/11~-- 
G|--------11-13-------------------------------------------- 
D|--11-13-------------------------------------------------- 
A|--------------------------------------------------------- 
E|--------------------------------------------------------- 

       X8           X4   
e|---(14p12p11)--(16p14p12)-17b-17b~~----| 
B|---------------------------------------| 
G|---------------------------------------| 
D|---------------------------------------| 
A|---------------------------------------| 
E|---------------------------------------| 
Ebm G#m Y si algun día yo soy parte de tus sueños, C# Ebm quiero que me digas que será cuestion de tiempo, F# C# como duele que esto ya no pueda funcionar, B C# contigo la luna yo podría conquistar. {ESTRIBILLO}:
Ebm B Y si te vás no habrá nadie aquí, G#m F# para que pueda ser a mi sentir, (F#)(C#) Ebm B es que yo estoy muriendo por amor, G#m F# sin tí no puedo mas seguir. Ebm B Y si te vás no habrá nadie aquí, G#m F# para que pueda ser a mi sentir, (F#)(C#) Ebm B es que yo estoy muriendo por amor, G#m F# sin tí no puedo mas seguir. G#m F# no puedo mas seguir. G#m B C# no puedo mas seguiiiiir.
LA TRANSCRIPCIÓN ES PARA UNA PERSONA MUY ESPECIAL A LA QUE DEBERÍA DE SONARLE LA LETRA DE ESTA CANCIÓN. PARA VOS V.F. Dudas, consultas, correcciones, amenazas o felicitaciones (porqué no): [email protected]

roll up this ad to continue

share this page

See Also: