E-Chords
Airbag

Ella No Esta(Chords)

Airbag

Key: F
Intro Base F C Dm A# x 3 F C Dm 
E----------------------------------------------------------------  
B--10~-----------10~------------------8--8------10~-----10~------  
G-------9-10~--------9-/12--10-10~--10-10------------9-10~-9--12-  
D---------------------------------------------------------------- 
A----------------------------------------------------------------  
E---------------------------------------------------------------- 

E----------------------------- 
B---------------8--8--8-/10~-- 
G---10-10~----10-10-10-------- 
D----------------------------- 
A----------------------------- 
E-----------------------------
F Y que será de aquel recuerdo Dm Que yo sentí en ese cuerpo A# C F Que yo se muy bien no volverá F Que sentirá todo este tiempo Dm Quién jugará todos sus juegos A# C F Que yo se muy bien no volverá F Dm No volverá, no volverá A# C F Se muy bien no volverá, no volverá F Quién mirara sus ojos negros Dm Quién dejará caer sus sueños A# C F Que no soñará, no soñará F Donde estará en este instante Dm Quién sentirá la brisa suave A# C F Que sus labios dan cuando no está F Dm Y ella no está y ella no está A# C F Se muy bien ella no está, no volverá F Dm No volverá, no volverá A# C F Se muy bien no volverá, no volverá
SOLO (base F Dm A# C F) 
E---------------------------------------------------------------- 
B-15~-13~--15-13/11/10~---15h17h18~-18p17p15h17~--15h17p15/13h15~ 
G---------------------------------------------------------------- 
D---------------------------------------------------------------- 
A---------------------------------------------------------------- 
E---------------------------------------------------------------- 
    // Esta parte muy rápido 
E--------------------------------15h17~-(17)/13----17~-(17)/1315~ 
B-----------------------15h17h18h---------------15~-------------- 
G--------------15h16h17h----------------------------------------- 
D(12)/15h16h17h-------------------------------------------------- 
A---------------------------------------------------------------- 
E---------------------------------------------------------------- 

E---17-18-17~---22^---20~- 
B------------------------- 
G------------------------- 
D------------------------- 
A------------------------- 
E-------------------------
F Dm Y ella no está y ella no está A# C F Se muy bien ella no está, no volverá F Dm No volverá, no volverá A# C F Se muy bien no volverá, no volverá A# C Dm Se muy bien no volverá, no volverá A# C F ...no volverá, no volverá F-C-Dm-A# (repite varias veces sobre canto y riff alternando) ...te siento en mis huesos y te vuelvo a encontrar, Solo quiero volar, si pudiera volar, Y tú sangre y tus ojos, ya no se puede más, ...y tu sangre, y te siento...
Riff: 
E---------------------------------------------------------- 
B--/10--8-----------------------------/10--8--------------- 
G---------9-10~------------------------------9-/12-10-10~-- 
D---------------(11-12-10--11-12-10)----------------------- 
A---------------------------------------------------------- 
E---------------------------------------------------------- 

E------------------------/17--15-------------/17--15----------- 
B--------------------------------17-18~--------------17-/20-18-18 
G--------10------------------------------------------------------ 
D-(11-12----11--12-10~)------------------------------------------ 
A---------------------------------------------------------------- 
E----------------------------------------------------------------
Referencias: h: ligado ascendente p: ligado descendente ^: estirar ^r: estirar y volver ~: vibrato /: Slide *: Armónico de púa ?: tremolo de púa (): en el solo comienzo de arrastre, (): en los riff a veces los toca de manera indiferente.

roll up this ad to continue

share this page

See Also: