E-Chords
Airbag

Colours(Chords)

Airbag

Key: Am
Intro: Am  C/G  F  Csus 

Am                            C/G 
It's time for you to fix me 
        F                  Csus 
 'Cause I can't breathe 
    Am                    G 
 It wasn't my intention 
               F            C 
 To let things go this far 

 Am             G 
 All the big ideas 

       F          C 
 I've kept inside 
   Am                          G       F 
I guess it doesn't mean that much to you 

Violão cordas de aço 1:  Am    G    F     F 

Guitarra clean 2 

Chorus   toque isso durante o Chorus 

 
------0--------0--------0-------0------------- 
----------------------------------1--------1-- 
----5--------4--------2-------2----------2----X5 
-7--------5--------3-------3-----------3------ 
---------------------------------------------- 
---------------------------------------------- 


--------5--------------3--------------1-------------1------ 
------5---5----------3---3----------1---1---------1---1---- 
----5-------5------4-------4------2-------2-----2-------2--X3 
--7--------------5--------------3-------------3------------ 
----------------------------------------------------------- 
----------------------------------------------------------- 
F Am G Don't you wanna hear F Don't you wanna see Am G F The colours in my head Am G F The colours in my head
Am G F Solo: Am G F G X2 Solo
 
------------------------s-------------------------------------- 
-----s----------15----13\12--------s--s------------------------ 
--12-\14-------x------------12---12\14\12----s--------p-------- 
---------14---x----------------------------14\12-10-12-10------ 
--------------rake----------------------------------------12--- 
--------------------------------------------------------------- 
 
-------------------- 
--------13------12-- 
----s--------------- 
--12\14-----12------ 
-------------------- 
-------------------- 
Am G No need to lose you hope now F G I owe you all you need Am G F G I'm out of function cold and scared inside
 
-------------------- 
--------13------12-- 
----s--------------- 
--12\14-----12------ 
-------------------- 
-------------------- 
Am G This fairytale is almost complete F Like a million lies Am G F But I guess it doesn't mean that much to you teclado entra D F X2 D F G Chorus como acima Orgão entra *************** Guitar Solo: Am G F G (Mantem isso durante o solo) Guitar Solo Seção 1
 
------------12--------------------10----------- 
----10--10----10--10-------10--10----10--10---- 
--12--12--12----12--12---12--12--12----12--12--X2 
----------------------------------------------- 
----------------------------------------------- 
----------------------------------------------- 
Seção 2
 
 ----15--13--12--10-- 
-------------------- 
--12--12--12--12----X2 
-------------------- 
-------------------- 
-------------------- 
Seção 1 x1 Seção 2 x2 3x Seção 1 x1
 
---b--br--------brbr---br--------12----12---12---- 
--13-13--13---12-----12---10---10--10----10---10-- 
-------------------------------------------------- 
-------------------------------------------------- 
-------------------------------------------------- 
-------------------------------------------------- 
 
---b-rb-----------12---------b------------12------------12--------12---- 
--13----13--13-15----12--10-12----10--10----10--10----10---10---10--12-- 
--------------------------------12--12--12----12----12--------12-------- 
------------------------------------------------------------------------ 
------------------------------------------------------------------------ 
------------------------------------------------------------------------ 
s b r
 
---------------\15------------12--------------------b--b--------brbr-- 
--13---13-12----------10--10----10--10----10--10---13-13-13---12------ 
--------------------12--12--12----12----12--12------------------------ 
---------------------------------------------------------------------- 
---------------------------------------------------------------------- 
---------------------------------------------------------------------- 
ub ub ub
 
----------------------1--1---------------- 
-------h------s-------1--1---10--10--10s-- 
--12--9-12--12\14-14--2--2---12--12--12\-- 
----------------------3--3---------------- 
----------------------3--3---------------- 
----------------------1--1---------------- 
hold hold
 
---b-------------br----|---b-----------------12---------|-----15---------- 
--13--13--13---12------|--13--13--13---13-15----12------|--12----13-12---- 
-------------------14--|----------------------------14--|----------------- 
-----------------------|--------------------------------|----------------- 
-----------------------|--------------------------------|----------------- 
-----------------------|--------------------------------|----------------- 
 
-----15--------|-----12--------------|------------------ 
--12----13-----|--------13-12-13-15--|-----12-13-12----- 
-----------14--|--14-----------------|--14----------14-- 
---------------|---------------------|------------------ 
---------------|---------------------|------------------ 
---------------|---------------------|------------------ 
 
---b--b-------br----------------- 
--13-13--13--12----p------------- 
-----------------14-12-14----14-- 
--------------------------------- 
--------------------------------- 
---------------------------------

roll up this ad to continue

share this page

See Also: