E-Chords
Airbag

Carol, No Dejes La Ciudad(Chords)

Airbag

Key: B
Intro: B - E - F# (x2): 

e--6/7--6/7--9--9/11--11--9--7--3/4--4/6-----| 
B-------------------------------4/5--5/7-----|  (x2) 
G--------------------------------------------| 
D--------------------------------------------| 
A--------------------------------------------| 
E--------------------------------------------| 
B Los bares, los cuentos, G#m E Robaron mi tiempo?que F# Ya no vuelve hacia mí B No puedes marcharte, G#m E No dejes de amarme?que F# - F - E Yo no puedo estar sin ti (Riff1)
Riff1 
e---6--6--5--4----| 
B---7--7--6--5----| 
G-----------------| 
D-----------------| 
A-----------------| 
E-----------------|
E F# B G#m Carol, no dejes la ciudad E F# G#m Tan solo quédate por mí E F# B G#m Carol no dejes la ciudad
E F# B Solo quédate por mí....
Punteo 
e----------------------------| 
B----------------------------|  (x2) 
G----------------------------| 
D----------------------------| 
A--2-2-4-4/6-4/6-4-2---------| 
E--------------------4-4/6---|
B La niebla me abraza, G#m E La noche se apaga y sé F# Que ha llegado mi final(Riff2)
Riff2 
e-------------| 
B-------------| 
G-------------| 
D-------------| 
A------1-1/2--| 
E--2-4--------|
B Hey carol! Detente G#m E No quiero perderte F# Ven, bésame una vez más Coro Punteo B - E - F# (x2) B - E - F# (x2)(Con el intro) Coro B - E - F# (x2)(Con el punteo grave y el intro) Final: B - B *Cualkier duda o error xfa avisa x msn..xD

roll up this ad to continue

share this page

See Also: