E-Chords
Aerosmith

Movin' Out(Chords)

Aerosmith

Key: Em
|----------------------------------------------------------------------------------------- 
|----------------------------------------------------------------------------------------- 
|---------------------5----------------------------------------5-7-7b-5--------------x2--- 
|---5-6-7-7-7-5-7-7-7---5-6-7-7-7-5-7-7-7--5-5-6-7-7-7-5-7-7-7----------7-7-7-5-7-7-7----- 
|-----------------------------------------6----------------------------------------------- 
|-----------------------------------------------------------------------------------------
Repete isso(F#) até o fim do verso 1 F# Ha ha ha ha...yeaWe all live on the edge of town Where we all live ain't a soul around People start a' comin' all we do is just a' grin Said we gotta move it out 'cause the city's movin' in I said we gotta move it out 'cause the city's movin' in
  A 
|-------------------------------------------------- 
|------0-----------------------0------------------- 
|-----2-2------------4-2-2----2-2------------------ 
|----2---2-2-2-2-2---4-2-2---2---2-2-2-2-2--------- 
|---0-----------------------0---------------------- 
|--------------------------------------------3b----
Repete até o coro A Tell me who you know and i'll tell ya who to Go see my friend he'll set you free Tell me what you need and maybe I can go too No one knows the way but maybe me Em Nobody goes there nobody shows there Nobody knows where you can find me
  Em 
|------------------------------------------- 
|------------------------------------------- 
|---2-2-2-4-5-2-2-2-4-5-2-2-2-4-5-5-7-0-2--- 
|---2-2-2-4-5-2-2-2-4-5-2-2-2-4-5-5-7-0-2--- 
|---0-0-0-2-3-0-0-0-2-3-0-0-0-2-3-3-5-0-0--- 
|-------------------------------------------
Am G Am G yeahhhh....Good mornin' glory allelujah to ya Am What is the story G And what's been goin' through ya Am G Livin' like a king off the fat of the land Am G Am G Workin' like a dog in a rock and roll bandWe're movin' we're getting out Am G We're movin' without a doubt Am G We're movin' we're goin' far Am G We're movin' oh yes we are Em 'Cause nobody goes there nobody shows there Nobody knows where you can find me Nobody knows there nobody shows there Nobody knows where you can find me

roll up this ad to continue

share this page

See Also: