E-Chords
adstringentes

Perto De Você(Chords)

adstringentes

Key: F
Intro Dm7  G  C  Am 

Tab - Riff Violão 

Parte 1 de 2 
      Dm7   G       C        Am         
E|----1-0-1-3-------0--------0------0-------| 
B|----1---------0---1--3--1--1----1---------| 
G|----2-------0-----0--------2--2-----------| 
D|----0-------------2--------2--------------| 
A|------------------3--------0--------------| 
E|----------3-------------------------------|
Parte 2 de 2 
      Dm7   G             C 
E|----1-0-1-3----3--3s5---0-----------------| 
B|----1-------------------1-----------------| 
G|----2-------------------0-----------------| 
D|----0-------------------2-----------------| 
A|------------------------3-----------------| 
E|----------3-------------------------------|
Dm7 G C Am Até mudei o meu caminho Dm7 G C Pra ficar sem te ver Dm7 G Com os olhos fechados C Am Eu sonhei contigo Dm7 G C Não tem como esquecer Dm7 G C Am Teu jeito aguçado, teu sorriso Dm7 G C A palma da tua mão Dm7 G C Am Acabam com todos meus sentidos Dm7 G C Me deixando sem direção Dm7 G Mas baby se você me chamar Dm7 G Eu largo tudo pra te encontrar Dm7 F G C Ficar contigo só até o mundo acabar ( Dm7 G C Am ) ( Dm7 G C )
Tab - Riff Violão 

Parte 1 de 2 
      Dm7   G       C        Am         
E|----1-0-1-3-------0--------0------0-------| 
B|----1---------0---1--3--1--1----1---------| 
G|----2-------0-----0--------2--2-----------| 
D|----0-------------2--------2--------------| 
A|------------------3--------0--------------| 
E|----------3-------------------------------|
Parte 2 de 2 
      Dm7   G             C 
E|----1-0-1-3----3--3s5---0-----------------| 
B|----1-------------------1-----------------| 
G|----2-------------------0-----------------| 
D|----0-------------------2-----------------| 
A|------------------------3-----------------| 
E|----------3-------------------------------|
Dm7 G C Am Eu joguei fora os meus motivos Dm7 G C Pra tentar te esquecer Dm7 G C Am Corri pra longe, acabei perdido Dm7 G C Mais perto de você Dm7 G C Am Da tua voz rouca, teu papo furado Dm7 G C O deslize da tua mão Dm7 G C Am O teu perfume por todos os lados Dm7 G C Descompassa meu coração Dm7 G Mas baby se você me chamar Dm7 G Eu largo tudo pra te encontrar Dm7 F G C Ficar contigo só até o mundo acabar Dm7 G Mas baby se você me chamar Dm7 G Eu largo tudo pra te encontrar Dm7 F G C Ficar contigo só até o mundo acabar Dm7 G Mas baby se você me chamar Dm7 G Eu largo tudo pra te encontrar Dm7 F G C Ficar contigo só até o mundo acabar Final Dm7 G C Am Dm7 G C
Tab - Riff Violão 

Parte 1 de 2 
      Dm7   G       C        Am         
E|----1-0-1-3-------0--------0------0-------| 
B|----1---------0---1--3--1--1----1---------| 
G|----2-------0-----0--------2--2-----------| 
D|----0-------------2--------2--------------| 
A|------------------3--------0--------------| 
E|----------3-------------------------------|
Parte 2 de 2 
      Dm7   G             C 
E|----1-0-1-3----3--3s5---0-----------------| 
B|----1-------------------1-----------------| 
G|----2-------------------0-----------------| 
D|----0-------------------2-----------------| 
A|------------------------3-----------------| 
E|----------3-------------------------------|

roll up this ad to continue

share this page

See Also: