E-Chords
Abstract Shadows

Distant Voices(Chords)

Abstract Shadows

roll up this ad to continue

Key: A
Intro A  E/G#  D9  Dm  A 

                E/G# 
I'm lost in the sorrow 
                 D9 
And blind in the pain 
         Dm                 A 
But my tears will never dry 
                 E/G# 
My destiny is traced 
                 D9 
And I have much fear 
          Dm                       A 
Cause' my heart's bleeding now, so 

                  E/G#       D9 
Tears are rolling down on my face 
        Dm                    A 
So take away my pain, and then 
                 E/G#         D9 
Heal my soul and look into my eyes 
           Dm      F#m 
Don't fade away 
             E                    A 
Show me the way that i have to follow 
      E/G#         Fm  
To be easier in my mind 
           E              A 
The light shines into my heart 
               E/G# 
My trust will save my soul 

    D9       A   
And I really trust you 
   D9           F#m 
My frozen tears wash my heart 
    D9           A            B     
But only you can cure my pain 

Em             C 
   You tell me words 
       D     Bm    C 
That I can't understand 
         C/C#         D9 
When you look into my eyes 
   D/D#         Em 
So please never lie! 
C        D9      Bm        C 
You told me that we were together 
    C/C#         D9 
And I believed in you 
D/D#                     Em 
And i canīt see the truth so 
                   C   D9  D/D#  C  B 
My heart is crying now 

Tab - Solo 

E|-----------------0--2--3--------------| 
B|--------------0----------3------------| 
G|-----------0--------------------------| 
D|-----2--4-----------------------------| 
A|--------------------------------------| 
E|--0-----------------------------------| 

E|-2--3/5---3--5/7---5--7/8-------------| 
B|--------------------------------------| 
G|--------------------------------------| 
D|--------------------------------------| 
A|--------------------------------------| 
E|--------------------------------------| 

E|--7--8--10\---5---3--2--0-------------| 
B|--------------------------------------| 
G|--------------------------------------| 
D|--------------------------------------| 
A|--------------------------------------| 
E|--------------------------------------| 

E|--3---2h--3--0-----0------------------| 
B|----------------0--0------------------| 
G|--------------------------------------| 
D|--------------------------------------| 
A|--------------------------------------| 
E|--------------------------------------| 

                                       Em 
E|--3---2h--3--0-----0------------------| 
B|----------------0--3------------------| 
G|-----------------------0-----0--------| 
D|--------------------------4-----4--0--| 
A|--------------------------------------| 
E|--------------------------------------| 
( Em D9 C B ) Em C D9 You tell me words that I can't Em C D9 (Understand) Oh No! Em C D9 You tell me words that I can't Em C D9 (understand) Oh No! Em C D9 You tell me words that I can't Em C D9 Oh no! Em C You tell me words D9 Em That I can't understand
share this page

See Also: