E-Chords
Aborto Elétrico

Conexão Amazônica(Chords)

Aborto Elétrico

roll up this ad to continue

Key: F
 
Introd.: ( Bb5 F5 Bb5 ) 2 VEZES 
 
 Bb5    (F5                        Bb5) 
E|---------------------------------------------| 
B|---------------------------------------------| 
G|----3-3-3-----------------------------3-3-3--|  
 
          (F5,Bb5) 
D|----3-3-3---3---3-3-3---3-3-3---3-3---3-3-3--| 
A|----1-1-1---3---3-3-3---3-3-3---3-3---1-1-1--| 
E|------------0h1-1-1-0h1-1-1-0h1-1-1----------|
(F5 Bb5) Estou cansado de ouvir falar Em Freud,Jung,Engels e Marx Intrigas intelectuais rodando em mesa de bar Db5 Yeah,yeah,yeah Bb5 Yeah,yeah,yeah F5 Yeah,yeah,yeah (F5 Bb5) O que eu quero,eu não tenho O que eu não tenho,eu quero ter Não posso ter o que eu quero E acho que isso não tem nada a ver Db5 Yeah,yeah,yeah Bb5 Yeah,yeah,yeah F5 Yeah,yeah,yeah (F5 Bb5) Os tambores da selva já começaram a rufar Os tambores da selva já começaram a rufar A cocaína não vai chegar A cocaína não vai chegar Conexão amazônica está interrompida Db5 Yeah,yeah,yeah Bb5 Yeah,yeah,yeah F5 Yeah,yeah,yeah C Eb F E você quer ficar maluco sem dinheiro e acha que está tudo bem C Eb F Mas alimento pra cabeça nunca vai matar a fome de ninguém C Eb F Uma peregrinação involuntária talvez fosse a solução C Eb F Auto-exílio nada mais é do que ter seu coração na solidão Db5 Yeah,yeah,yeah Bb5 Yeah,yeah,yeah F5 Yeah,yeah,yeah
 Solo: 
Guitarra. 
E|----------------------------| 
B|-5-7b8-5-7b8-5--8-5-0-5~-5~-| 4x  
G|----------------------------| 
D|----------------------------| 
A|----------------------------| 
E|----------------------------| 
 
E|--------------------------------| 
B|-5-7b8-5-7b8-5--8-5-0-5-8s10-5~-| 
G|--------------------------------| 
D|--------------------------------| 
A|--------------------------------| 
E|--------------------------------|
(F5 Bb5) Estou cansado de ouvir falar Em Freud, Jung, Engels e Marx Intrigas intelectuais Rodando em mesa de bar Db5 Yeah,yeah,yeah Bb5 Yeah,yeah,yeah F5 Yeah,yeah,yeah Obs: não esqueça de fazer:(Bb5 F5 Bb5 )2x fica muito maneiro, valeu ! _______________________________________________________ Contribuição: Danilo Rafael ([email protected])
share this page

See Also: