E-Chords
4/1 - Quatro Por Um

Reteté(Chords)

4/1 - Quatro Por Um

roll up this ad to continue

Key: B5
Reteté  

Intro: G5   E5 

E |---------------------------------------------- 
B |---------------------------------------------- 
G |--9-9-7----9-9-7-----7/9-7-------------------- 
D |--------9--------9---------------------------- 
A |---------------------------------------------- 
E |----------------------------------------------
(3x) B5 G5 Era sexta-feira, dez horas da noite E5 G5 Quando começou a vigília no galpão B5 Tinha tanto jovem, G5 Quase que perdi a conta E5 G5 Muita alegria e um só coração B5 A5 Era uma reunião pra buscar poder E5 G5 Eu só não sabia o que ia acontecer B5 Não importava se era homem A5 Ou se era mulher E5 O importante é G5 Que a galera era do reteté B5 A5 Fogo, estou cheio de poder E5 G5 Fogo, tudo pode acontecer B5 A5 Fogo, que desce no altar E5 G5 Fogo não consigo mais parar (2X)
E |---------------------------------------------- 
B |---------------------------------------------- 
G |--9-9-7----9-9-7-----7/9-7-------------------- 
D |--------9--------9---------------------------- 
A |---------------------------------------------- 
E |----------------------------------------------
G5 E5 (2x) B5 Tinha muita unção, G5 Era só vitória E5 Era um pula-pula, G5 Muita gente dando glória B5 Tinha gente cantando, G5 Tinha gente chorando E5 G5 Sendo batizada com Espírito Santo B5 A5 Era uma reunião pra buscar poder E5 G5 Eu só não sabia o que ia acontecer B5 Não importava se era homem A5 Ou se era mulher E5 O importante é G5 Que a galera era do reteté B5 A5 Fogo, estou cheio de poder E5 G5 Fogo, tudo pode acontecer B5 A5 Fogo, que desce no altar E5 G5 Fogo não consigo mais parar (2X) *Instrumental: B5 G5 E5 (3x) *{Nessa parte só baixo e bateria} *Era uma reunião pra buscar poder Eu só não sabia o que ia acontecer Não importava se era homem Ou se era mulher O importante é * G5 Que a galera era do reteté B5 A5 Fogo, estou cheio de poder E5 G5 Fogo, tudo pode acontecer B5 A5 Fogo, que desce no altar E5 G5 Fogo não consigo mais parar (2X)
E |---------------------------------------------- 
B |---------------------------------------------- 
G |--9-9-7----9-9-7-----7/9-7-------------------- 
D |--------9--------9---------------------------- 
A |---------------------------------------------- 
E |---------------------------------------------- 
G5 E5 (2x) B5 orkut; [email protected] msn: [email protected] maiores duvidadas deixe um rec no orkut.. valeu e que Deus abençoe
share this page

See Also: