E-Chords
4/1 - Quatro Por Um

O Que Vier(Chords)

4/1 - Quatro Por Um

roll up this ad to continue

Key: A
 A   Em    D - bis 

    A           Em      D 
E----------------------------------------- 
B----------------------------------------- 
G----6-6-6-6-6-4---4--6------------------- 
D----------------7------7----------------- 
A----------------------------------------- 
E----------------------------------------- 
    A           Em         D 
E----------------------------------------- 
B----------------------------------------- 
G----6-6-6-6-6-4---4--6------------------- 
D----------------7------7----7-9-7---7---- 
A--------------------------9-------9------ 
E----------------------------------------- 
A C G D A Lembra-te do Teu criador nos dias da tua mocidade C G E Antes que venham os maus dias e os anos em que dirás Bm E Bm E Não tive neles prazer algum A C G D A Antes que se escureçam o sol, a luz, a lua, e as estrelas C G D Antes que se curvem suas costas e não consiga mais andar
A C F G O que vier em minhas mãos eu vou fazer, ie, ie A C D G Não vou deixar que outra geração faça por mim
    A           Em      D 
E----------------------------------------- 
B----------------------------------------- 
G----6-6-6-6-6-4---4--6------------------- 
D----------------7------7----------------- 
A----------------------------------------- 
E----------------------------------------- 
    A           Em         D 
E----------------------------------------- 
B----------------------------------------- 
G----6-6-6-6-6-4---4--6------------------- 
D----------------7------7----7-9-7---7---- 
A--------------------------9-------9------ 
E----------------------------------------- 
A C G D A Há muita coisa pra fazer não dá pra ficar de braços cruzados C G E A vida é curta, os dias passam, não dá pra ficar parado Bm E Bm E Você precisa entender A C Jesus Cristo está voltando, queira você ou não G D E chegou a hora de tomar uma decisão A C Quem coloca a mão no arado não pode olhar pra trás G D Então, já era, é assim que se faz Refrão Riff
E------------------------------------------- 
B------------------------------------------- 
G------------------------------------------- 
D---------7-5-------------------7-5----5--7- 
A--0--5/7-----7-6--5-3--0---5/7-----7--3--5- 
E------------------------------------------- 

E---------------------------------------------------- 
B---------------------------------------------------- 
G---------------------------------------------------- 
D---------7-5-------------------7-5------5----7------ 
A--0--5/7-----7-6--5-3--0---5/7-----7-3-5--5-7--5-7-0 
E---------------------------------------------------- 
Solo: B D E Refrão Final:
 
     A           Em         D 
E----------------------------------------- 
B----------------------------------------- 
G----6-6-6-6-6-4---4--6------------------- 
D----------------7------7----7-9-7---7---- 
A--------------------------9-------9------ 
E----------------------------------------- 

     A           Em       D             A 
E----------------------------------------- 
B----------------------------------------- 
G----6-6-6-6-6-4---4--6--7-7-7-7-6-4----7- 
D----------------7-------------------7--7- 
A---------------------------------------5- 
E----------------------------------------- 
share this page

See Also: