E-Chords
360

Still Rap(Chords)

360

roll up this ad to continue

Key: Em
Intro 
e|------------------------------------------------------------| 
B|------------------------------------------------------------| 
G|------------------------------------------------------------| 
D|-----------------10-9-------------------12-10----10---------| 
A|--------10-12-10------10-12----10-12-10-------10------------| 
E|-----12---------------------12------------------------------| 


verse 1 

e|------------------------------------------------------------| 
B|------------------------------------------------------------| 
G|------------------------------------------------------------| 
D|-----------------10-9-------------------12-10----10---------| 
A|--------10-12-10------10-12----10-12-10-------10------------| 
E|-----12---------------------12------------------------------| 
N.C. All these jealous motherfuckers are old now Saying 'Don't rap' and go back to my old sound (on the old shit mate) And people saying I've sold out Yeah man I have when I'm performing to a whole town (Woooooo) Yo, it ain't true, you working 9 to 5 But you fucking hate for the money What does that make you? The difference is that I'm in love with this shit And I'm doing me - Fuck what you think! (Damn 60!) Ayo I aim high, never low They try, getting close If they ain't getting with what I say - urgh, let 'em go Wait, hide, then explode You see me take flight at insane height You want it? Then come and get a dose! I hear 'em talk, but honestly all that realness bores me I'll went my own path, I knew I'll kill it surely Those who used to hold this crown in this field before me Are the same motherfuckers who now kneel before me
Em G Here's a toast to living in the life I chose Am Em Heavens knows, it's the one that chose me Em Nothing comes free when you're hungry Em Staring down 2 roads tryna get the money Em G Am Here's a toast to living in the life I dream Em G Am Here's a toast to living in the life I dream Em G Am Here's a toast to living in the life I dream Em G Am Here's a toast to living in the life I dream
verse 2
e|------------------------------------------------------------| 
B|------------------------------------------------------------| 
G|------------------------------------------------------------| 
D|-----------------10-9-------------------12-10----10---------| 
A|--------10-12-10------10-12----10-12-10-------10------------| 
E|-----12---------------------12------------------------------| 
N.C. UH, my brain is kinda fried, give me a sec It's been about 5 weeks since I've been in my bed I work. I can't recall the last minute I slept I ain't running from 5 O but I'm resisting arrest I can't sleep until I'm the best I will when I'm dead - I took that in a literal sense And while the rest of you just sit on the fence I'm starting point guard. Go and give a kiss to the bench Ayo in Hip-Hop ya give props The second that you let them see your shits pops, they're pissed off Keep it real and piss off Thought of every goal I wanted; wrote a list of All my biggest dreams, now every one of them's ticked off Ayo I can't look at life on the bright side The only hours I leave home is at night time I'm a MC, no care, stress free Needed no one to accept me, except me
Em G Here's a toast to living in the life I chose Am Em Heavens knows, it's the one that chose me Em Nothing comes free when you're hungry Em Staring down 2 roads tryna get the money Em G Am Here's a toast to living in the life I dream Em G Am Here's a toast to living in the life I dream Em G Am Here's a toast to living in the life I dream Em G Am Here's a toast to living in the life I dream
Outro Em Carry on G Am Carry on in your world Em 'Cos I'm on G Am 'Cos I'm on to my dreams Em Cheers, cheers, cheers, cheers G Am Here's to my dreams Em Dream, dream, dream, dream G Am Here's to my dreams Em Carry on G Am Carry on in your world Em 'Cos I'm one G Am 'Cos I'm one of my dreams Em And I'm never gonna wake up G Am From my dream
share this page

See Also: