E-Chords
2Polos

Pra Que Nunca Se Acabe(Chords)

2Polos

roll up this ad to continue

Key: C#m
Intro: C#m B C#m Abm 

C#m  B          C#m 
É estranho perceber 
      Abm        C#m 
O que não é mais você 
      Abm         C#m 
Ou será que nunca foi? 
Abm             A 
Eu queria acreditar 
       C#m       A 
Que um dia nos amamos 
       C#m  B    A 
Que um dia foi feliz então 
      B 
Pode ser 

C#m        B 
Que volte atrás 
       Abm        A 
E não deixe ser assim 
C#m      B 
E tente ver 
      Abm     A 
Quase todo começo 
          C#m          Abm     C#m 
Vem de um fim, la, ra, ra, ah , ah 

      B           C#m 
Todo dia eu quero ser 
      Abm      C#m 
Algo novo pra você 
         E        C#m 
Pra que nunca se acabe 
            Abm        A 
Pra que eu possa acreditar 

     C#m        A 
Que ainda nos amamos 

     C#m  B   A 
Que ainda é feliz então 
      B 
Pode ser 

     C#m    B 
Que volte atrás 
       Abm        A 
E não deixe ser assim 
   B 
E tente ver 
     Abm     A 
Quase todo começo 
          C#m          Abm     C#m  Ab   
Vem de um fim, la, ra, ra, ah , ah 

A         C#m         A 
Mas se eu te beijar agora 
    C#m             A 
Lembrando o que já foi 
     C#m          A 
Peço que não vá embora, pois 
    C#m       A 
Meu amor não foi 

     C#m    B 
Que volte atrás 
       Abm        A 
E não deixe ser assim 
   B 
E tente ver 
     Abm     A 
Quase todo começo 
          C#m          Abm     C#m  Ab   
Vem de um fim, la, ra, ra, ah , ah 

Base do solo 

C#m B Abm A (4X)
 
E|------------------------|------------------| 
B|--5-5-5-5-5-5-4-5-4-----|------------------| 
G|--------------------4---|---6-4---6-4---4--| 
D|---------------------6--|-------6-----6----| 
A|------------------------|------------------| 
E|------------------------|------------------| 

E|---------------------------------|-------------------------| 
B|--5-5-5-5-5-5-4-5/7-5-4----------|--5-4-5-4-4h5p4-4h5p4-4--| 
G|-----------------------4-4/6-4-4-|-------------------------| 
D|---------------------------------|-------------------------| 
A|---------------------------------|-------------------------| 
E|---------------------------------|-------------------------| 

E|------------------------|---------------------| 
B|--5-5-5-5-5-5-4---------|--5-4----------------| 
G|----------------4-------|-----4---6-4---------| 
D|------------------7-7-7-|--------6-----6-4-6--| 
A|------------------------|---------------------| 
E|------------------------|---------------------| 

E|-------------------| 
B|-------------------| 
G|----4--------------| 
D|--4---6-5-4-6-4----| 
A|----------------7--| 
E|-------------------| 
C#m B Que volte atrás Abm A E não deixe ser assim C#m B E tente ver Abm A Quase todo começo C#m Vem de um fim, Abm A E não deixe ser assim C#m B E tente ver Abm A Quase todo começo C#m Vem de um fim.
share this page

See Also: