E-Chords
2Polos

Inocente(Chords)

2Polos

roll up this ad to continue

Key: F
  
      F7+  
Inocente  
             Am                       C  
Nas promessas de um final  
      F7+  
Inocente  
              Am                   C  
Pois ninguém espera o caos  
                 F7+                   C              G           F  
E não morreu, mas renasceu ali o seu final  

(F   Em   Am   C   F   Em   Am)  

   7X com leve distorção         1X finalizando a intro         

E|--12----12-----------------|--12----12-------------------|   
B|-----13----13-12-13-12-10--|-----13----13-12-10----10~~--|   
G|---------------------------|--------------------12-------|   
D|---------------------------|-----------------------------|   
A|---------------------------|-----------------------------| 
E|---------------------------|-----------------------------| 
 

Am                              F  
Eu senti sua voz mudar  
                              Am  
E sumir na escuridão  
                                      F  
Poucas vezes pude ouvir você falar assim  
               Am  
Sem fingir  
                          F  
Você vê de novo  
                                  Am  
Tudo que já enfrentou  
                               F  
E descobre que já não é mais o rei que foi  

(Am   C)  

       F7+  
Inocente  
             Am                       C  
Nas promessas de um final  
      F7+  
Inocente  
              Am                   C  
Pois ninguém espera o caos  
                 F7+                   C              G           F  
E não morreu, mas renasceu ali o seu final  

(F   Em   Am   C   F   Em   Am)  
E|--12----12-----------------|--12----12-------------------|   
B|-----13----13-12-13-12-10--|-----13----13-12-10----10~~--|   
G|---------------------------|--------------------12-------|   
D|---------------------------|-----------------------------|   
A|---------------------------|-----------------------------| 
E|---------------------------|-----------------------------|  
Am                      F  
Cria asas pra falar  
                                 Am  
Quase sempre o irreal  
                               F                                               Am  
E depois se vê tão longe, imerso em gelo e solidão  
                           F  
Pode ver de novo  
                                   Am  
Tudo que não enfrentou  
                               F  
E descobre que já não é mais o rei que foi  

       F7+  
Inocente  
             Am                       C  
Nas promessas de um final  
      F7+  
Inocente  
              Am                   C  
Pois ninguém espera o caos  
                 F7+                   C              G  
E não morreu, mas renasceu ali o seu final  

          F7+                Am  
Vai saber de onde vem  
                        C  
Os nossos motivos tão banais  
                     G  
Nos considerando especiais  
           F7+                  Am  
Tanta dor pra entender  
                      C  
Que um dia a vida fala mais  
                           G  
Que qualquer palavra é capaz  

           F7+                  Am 
Tanta dor pra entender 
                      C 
Que um dia a vida fala mais 
                           G 
Que qualquer palavra é capaz 

solo por trás do refrão 

E|--17(7x)--15(7x)-----------------|   
B|-----------------17(7x)--13(7x)--|   
G|---------------------------------|  3X 
D|---------------------------------|   
A|---------------------------------| 
E|---------------------------------| 
F7+ Inocente Am C Nas promessas de um final F7+ Inocente Am C Pois ninguém espera o caos F7+ C G E não morreu, mas renasceu ali o seu final F7+ C G Am Não morreu, mas renasceu pra não ser outro igual
E|--12----12-----------------|   
B|-----13----13-12-13-12-10--|  
G|---------------------------|  
D|---------------------------|  
A|---------------------------| 
E|---------------------------| 
share this page