E-Chords
2Polos

Apnéia(Chords)

2Polos

roll up this ad to continue

Key: F#
Intro: F# A D Bm 
  
 
E|-------------|-----------------------------|--------------|  
B|-------------|-----------------------------|--------------|  
G|-------------|-----------------------------|--------------|  
D|--------2/4--|----------2-2h4-4p2---2------|-------2-2h4~~|  
A|--7p4-7------|------2-4-----------4---4----|---2-4--------|  
E|-------------|--2-5---------------------2--|-5------------| 
F# A Vou parar pra respirar D O amanhecer Bm F#m Sentir o sol bater A Como uma criança D Conhecendo o mar Bm Vem me encontrar F# C#m D C#m E
 
E|------------------------------|-------------------------------|  
B|------------------------------|-------------------------------|  
G|------------------------------|-------------------------------|  
D|------------------------------|-------------------------------|  
A|---------------4p2-0-2-0---0--|---------------4p2-0-2-0---0---|  
E|--2-2-2-2-2-2------------4----|--2-2-2-2-2-2------------4-----|  

E|-------------------|----------------|-------------------|  
B|-------------------|----------------|-------------------|  
G|-------------------|----------------|-------------------|  
D|-------------------|--2-0---0-------|-------------------|  
A|--2/4-4-4-4--4-4/5-|------4---4-2-4-|--2/4-4-4-4--4-4/7-|  
E|-------------------|----------------|-------------------|
F#m D Meus sonhos são mais, Bm Como doses de alegrias iguais D Diariamente F#m Ou quase sempre eu vou D Esperando por mais Bm Sem medo de olhar pra trás E ver D A F#m Que nada foi como devia ser D Me traz de volta Bm E F#m E Me faz lembrar o que é viver F# A Vou parar pra respirar D O amanhecer Bm F#m Sentir o sol bater A Como uma criança D Conhecendo o mar Bm Vem me encontrar F# C#m D C#m E
 
E|------------------------------|-------------------------------|  
B|------------------------------|-------------------------------|  
G|------------------------------|-------------------------------|  
D|------------------------------|-------------------------------|  
A|---------------4p2-0-2-0---0--|---------------4p2-0-2-0---0---|  
E|--2-2-2-2-2-2------------4----|--2-2-2-2-2-2------------4-----|  

E|-------------------|----------------|-------------------|  
B|-------------------|----------------|-------------------|  
G|-------------------|----------------|-------------------|  
D|-------------------|--2-0---0-------|-------------------|  
A|--2/4-4-4-4--4-4/5-|------4---4-2-4-|--2/4-4-4-4--4-4/7-|  
E|-------------------|----------------|-------------------|
F#m D Acordo pra ver Bm Talvez o improvável me dizer D Que vale a pena me arriscar F#m E eu vou D Esperando por mais Bm Sem medo de olhar pra traz E ver D F#m Que nada foi como devia ser D Me traz de volta Bm F#m Me faz lembrar o que é viver
 
E|--------------------|  
B|--------------------|  
G|--------------------|  
D|--------------------|  
A|--4h5p4------4h5p4--|  
E|--------2-2---------| 
F# A Vou parar pra respirar D O amanhecer Bm F#m Sentir o sol bater A Como uma criança D Conhecendo o mar Bm Vem me encontrar F# E Me dê a mão D Vou te levar Bm F#m Aonde nada vai nos alcançar E Escuto a paz D Somos só dois Bm Deixando o mundo inteiro E F#m Pra depois
share this page

See Also: