E-Chords
2Polos

Anita(Chords)

2Polos

roll up this ad to continue

Key: C#m
Intro: C#m E A F#m (2X) 

E|------------------------------------------| 
B|---------------------------------9/10-9---| 
G|---------9---------9--------9-------------| 
D|----9h11------11p9---7-9h11---7-----------| 
A|-11--------11-----------------------------| 
E|------------------------------------------| 


E|-----------------------------------7-7/9--| 
B|-----------------------7/9---9p7-9--------| 
G|---------9--------------------------------| 
D|----9h11------11p9--11--------------------| 
A|-11--------11-----------------------------| 
E|------------------------------------------| 
C#m Quando encontro com ela E Só consigo pensar A F#m Onde a nossa noite vai acabar C#m E E o lugar ideal pra nós A F#m Não é tão difícil de imaginar C#m E Quando ela aparece A Como se já soubesse F#m Espalha fogo em todo lugar C#m E E eu já posso ver A Onde ela existe sem pensar F#m C#m E eu não vou morrer antes de você E Posso ver A Hoje permita-se tentar B Me inspire a nos ver como um só C#m Quando encontro com ela E Só consigo pensar A F#m Onde a nossa noite vai acabar C#m E Mil maneiras de chegar lá A F#m Mil lugares onde posso chegar C#m E Quando ela aparece A Como se já soubesse F#m Espalha fogo em todo lugar C#m E E eu já posso ver A Onde ela existe sem pensar F#m C#m E eu não vou morrer antes de você E Posso ver A Hoje permita-se tentar B Me inspire a nos ver como um só C#m B4 Je n'ai pas compris A Suis emerveille F#m Faire ta connaissance C#m B4 A Ma belle, sil te plait, comment tu tappelles? F#m Voudrais-tu avec moi 'carpe diem'?
E|-------------------------------|---------------------------| 
B|-------------------12----------|---------------------------| 
G|----------11-11/13----11/13----|---------------------------| 
D|--6/14-14----------------------|--11-13-14-14-13-----------| 
A|-------------------------------|-----------------14-11~~---| 
E|-------------------------------|---------------------------| 


E|------------------------------------|----------------------------------| 
B|------------------------------------|----------------------------------| 
G|--13b14-14r13-13---14-14-13-13------|---12/14-12/13--------------------| 
D|------------------------------14-11-|---------------14/16--16\14--11~~-| 
A|------------------------------------|----------------------------------| 
E|------------------------------------|----------------------------------|
F#m Espalha fogo em todo lugar C#m E E eu já posso ver A Onde ela existe sem pensar F#m C#m E eu não vou morrer antes de você E Posso ver A Hoje permita-se tentar B Me inspire a nos ver como um só
E|-----------------------------|---------------------------| 
B|-----------------------------|---------------------------| 
G|-----------------------------|---------------------------| 
D|--11----9-9--9---------------|--11----9-9--9-------------| 
A|-----11--------11-9-11-------|-----11--------11-9-11-----| 
E|-----------------------9-9---|-----------------------9-9-| 

E|-----------------------------|---------------------------| 
B|-----------------------------|---------------------------| 
G|-----------------------------|---------------------------| 
D|--11----9-9--9---------------|--14-11-13----------11~~~~-| 
A|-----11--------11-9-11-11/12-|-----------11-12-14--------| 
E|-----------------------------|---------------------------| 
share this page

See Also: