E-Chords
2ois

Me Sinto Um Repolho(Chords)

2ois

roll up this ad to continue

Key: C
C     F     C  F    C   F     Am  F 
Vamos devagar, hoje é segunda-feira 
   C   F    C      F      C     F   Am  F 
O urso de domingo não me deu colher de chá 
C     F    C         F    C 
Eu vou riscar, eu sou um giz 
C     F      C      F 
Vou desenhar, um chafariz 
Am        F   Am      F 
Me refrescar, me renovar 

 
( C  F  C  F  C  F  A  C ) 
E|---------------------------------------------------------------| 
B|----8-----------8---------------8------------------------------| 
G|------9--7--9------9---7---5--------9---7---9---5---7---4-5----| 
D|---------------------------------------------------------------| 
A|---------------------------------------------------------------| 
E|---------------------------------------------------------------| 
C F C F C F Am F Meu melhor amigo só me liga a cobrar C F C F C F Am F E eu já excedi minha cota de aspirina Am F Am F Quero andar sem tropeçar C Mas caso eu desmaiar F C F Toma conta de mim, que 'mim' vai precisar C F Am F O meu cansaço não me deixa mais pensar
Me deixa 'nóis' pensar 
E|--------------------------------------------------------| 
B|--8---------------8--------------8----------------------| 
G|------9---7---9-------9---7--5------9---7--9----5--7-x--| 
D|--------------------------------------------------------| 
A|--------------------------------------------------------| 
E|--------------------------------------------------------| 
C F C F C F Am F Queria só dormir e não ter que acordar C F C F Eu vou falar o quanto eu quis C F C F Ter um lugar pra ser feliz Am F Lembro que um dia eu consegui fazer você entender o por quê Am Que eu ligava todo dia, noite, sem parar F Só pra ouvir tua voz Am F Am F Quero andar sem tropeçar C Mas caso eu desmaiar F C F Toma conta de mim, que 'mim' vai precisar C F Am F O meu cansaço não me deixa mais pensar C F C F Tão cansado eu vou riscar, eu sou um giz C F C F Tão faminto C F C F C Sonolento eu vou falar o quanto eu quis C Quase caindo (3x) C F Quase caindo no chão... ( C )
share this page

See Also: