E-Chords
1Kilo

Tipo Agora(Chords)

1Kilo

roll up this ad to continue

Key: Gm
         Gm7                C7/9 
Sem documento e lenço eu faço 
                              Am7 
A vontade pra tu conversar pelada 
          D7/9+ 
Hey baby nosso amor não tem vaidade 
     Gm7 
Não tem maturidade 
     C7/9 
Um brinde à nossa pouca idade 
    Am7 
Um dia é quase a vida 
 D7/9+                 Gm7 
Meu Deus quanta novidade 
C7/9          Am7             D7/9+ 
     A nossa nova moda é ter tempo e não ter hora 
          Gm7               C7/9 
E aí que mora o medo, de o tarde demais 
              Am7  D7/9+ 
Chegar muito cedo,tipo agora 
   Gm7                  C7/9 
O fogo em breve toma o circo todo 
Já queimou os toldos 
  Am7                   D7/9+ 
Queimou minhas poesias para ti 
Mas eu tinha de cabeça 
Gm7            C7/9 
    Falo todas elas antes que eu te perca 
          Am7 
E pra no fim não me queimar 
   D7/9+ 
A mente pede que eu te esqueça 

 Gm7                     C7/9 
Deixa que eu te mordo inteira 
              Am7                  D7/9+ 
E falo as besteiras que cê quer ouvir 
 Gm7                  C7/9 
Festa, droga e brincadeira 
                  Am7                   D7/9+ 
Nos perdemos na poeira do que está por vir 

 Gm7                     C7/9 
Deixa que eu te mordo inteira 
              Am7                  D7/9+ 
E falo as besteiras que cê quer ouvir 
 Gm7                  C7/9 
Festa, droga e brincadeira 
                  Am7                   D7/9+ 
Nos perdemos na poeira do que está por vir 

Solo 

E|---------------------8--------------------| 
B|----6-8-8~----6-8-8~---8/10---------------| 
G|-/7--------/7-----------------------------| 
D|------------------------------------------| 
A|------------------------------------------| 
E|------------------------------------------| 
E|---------------------8--------------------| 
B|----6-8-8~----6-8-8~---8/10---------------| 
G|-/7--------/7-----------------------------| 
D|------------------------------------------| 
A|------------------------------------------| 
E|------------------------------------------| 
E|-------------------------8----------------| 
B|----6-8-8~-9p8-6---6-8-8---8/10-----------| 
G|-/7--------------7------------------------| 
D|------------------------------------------| 
A|------------------------------------------| 
E|------------------------------------------| 
E|------------------------------------------| 
B|----6-8-8~-9p8-6---6-8-8--8h10-10~--------| 
G|-/7--------------7--------9---------------| 
D|------------------------------------------| 
A|------------------------------------------| 
E|------------------------------------------| 
Gm7 Me perco no seu corpo C7/9 Nega eu fico louco Am7 Do jeito que cê faz D7/9+ Senta assim de trás Gm7 C7/9 É mil motivos pra sonhar Am7 Muita droga e só nós dois D7/9+ Num lazer à beira mar Gm7 C7/9 Me pede o que quiser Am7 Eu sei que cê me quer D7/9+ Só pelo jeito de olhar Gm7 C7/9 É pouca fala e muita ação Am7 Sem treta, só tesão D7/9+ Segue seu coração Gm7 C7/9 Sou muito mais um filme bom Am7 D7/9+ Pipoca, e um edredom, e Adoniran no som Gm7 C7/9 Confesso que nos prendemos demais Am7 D7/9+ Confesso que nos perdemos demais Gm7 Confesso que até entendo seus pais C7/9 Não confiar na nossa história Am7 D7/9+ Fez com que agora eu não pudesse mais voltar atrás Gm7 C7/9 Deixa que eu te mordo inteira Am7 D7/9+ E falo as besteiras que cê quer ouvir Gm7 C7/9 Festa, droga e brincadeira Am7 D7/9+ Nos perdemos na poeira do que está por vir Gm7 C7/9 Deixa que eu te mordo inteira Am7 D7/9+ E falo as besteiras que cê quer ouvir Gm7 C7/9 Festa, droga e brincadeira Am7 D7/9+ Nos perdemos na poeira do que está por vir Gm7 C7/9 Deixa que eu te mordo inteira Am7 D7/9+ E falo as besteiras que cê quer ouvir Gm7 C7/9 Festa, droga e brincadeira Am7 D7/9+ Nos perdemos na poeira do que está por vir Gm7 C7/9 Deixa que eu te mordo inteira Am7 D7/9+ E falo as besteiras que cê quer ouvir Gm7 C7/9 Festa, droga e brincadeira Am7 D7/9+ Nos perdemos na poeira do que está por vir Gm7 C7/9 Am7 D7/9+ Gm7 C7/9 Am7 D7/9+
share this page

See Also: