E-Chords
1Kilo

Se Der Pra Responder(Chords)

1Kilo

roll up this ad to continue

Key: A
   D9                
E|--0----0--x---0----0--0--0--| 
B|--3----3--x---3----3--3--3--| 
G|--2----2--x---2----2--2--2--| 
D|--0----0--x---0----0--0--0--| 
A|----------------------------| 
E|----------------------------|
   E               
E|--0----0--x---0----0--0--0--| 
B|--0----0--x---0----0--0--0--| 
G|--1----1--x---1----1--1--1--| 
D|--0h2--2--x---2----2--2--2--| 
A|--0h2--2--x---2----2--2--2--| 
E|--0----0--x---0----0--0--0--|
    C#m              
E|--4----4--x---4----4--4--4--| 
B|--5----5--x---5----5--5--5--| 
G|--6----6--x---6----6--6--6--| 
D|--6----6--x---6----6--6--6--| 
A|--4----4--x---4----4--4--4--| 
E|--4----4--x---4----4--4--4--|
    A9                
E|--0----0--x---0----0--0--0--| 
B|--0----0--x---0----0--0--0--| 
G|--2----2--x---2----2--2--2--| 
D|--2----2--x---2----2--2--2--| 
A|--0----0--x---0----0--0--0--| 
E|----------------------------|
D9 Olá, vamos recomeçar E Sei lá, queria te falar C#m Tá aí, esse é meu celular A9 Liga, só pra eu te escutar D9 Ou me explicar O porquê que cê foi E Juro que dessa vez não C#m Mas cê partindo sem mais A9 O questionamento continua Então diga D9 Quando foi que A gente se perdeu? E Será que foi Quando se desentendeu? C#m Se tem um culpado Diz o que que é que aconteceu A9 Me diz qual o problema Que a gente não resolveu D9 Diz que seu coração é meu E ninguém tira  E Eu te digo o mesmo Acredite, não é mentira C#m Mas se não foi isso Tudo bem, o mundo gira A9 O jogo é assim, mas sempre vira
   D9 Me diga o porquê De ter ido embora E Porquê de não voltar agora C#m E se der pra responder Não me ignora A9 Não entendi o porquê até agora    D9 Me diga o porquê De ter ido embora E Porquê de não voltar agora C#m E se der pra responder Não me ignora A9 Não entendi o porquê até agora
D9 Se você quiser Eu volto a te procurar E Ainda tá no mesmo endereço C#m Aaaa Você não olha o celular A9 Mas vai tá em casa Eu conheço D9 Bem as curvas do teu corpo Seu olhar não engana E Beija meu pescoço Deita na minha cama C#m Pra eu lembrar daquele dia chuvoso A9 Pra fazer aquele amor gostoso Pra fazer
D9 Me diga o porquê De ter ido embora E Porquê de não voltar agora C#m E se der pra responder Não me ignora A9 Não entendi Nem o porquê até agora D9 Me diga o porquê De ter ido embora E Porquê de não voltar agora C#m E se der pra responder Não me ignora A9 Não entendi
share this page

See Also: