E-Chords
1Kilo

Cavalo Branco(Chords)

1Kilo

roll up this ad to continue

Key: G#m
Capo on 2nd fret
 

Intro F#m  C#m7  F#m  C#m7, F#m  C#m7  Bm7  C#m7 

E|----2p0-----------0---| 
B|--------0-----3-------| 
G|--0---------0---0---3-| 
D|-2--------------------| 
A|----------2-----------| 
E|----------------------| 

E|----2p0-----------0---|-------------------0-------| 
B|--------0-----3-------|-----1---------3-----3---3-| 
G|--0---------0---0---2-|---0---0-----2---2-----2---| 
D|-2--------------------|---------------------------| 
A|----------2-----------|-0-------1/2---------------| 
E|----------------------|---------------------------| 
F#m C#m7 F#m C#m7 Se me queria, por que reclamava tanto? F#m C#m7 Bm7 C#m7 Acho que ela esperava um príncipe num cavalo branco F#m C#m7 F#m C#m7 Se me queria, por que reclamava tanto? F#m C#m7 Bm7 C#m7 Acho que ela esperava um príncipe num cavalo branco F#m C#m7 Coração gela, orgulho que ficou só naquela F#m C#m7 Correr atrás só se for atrás de pipa F#m Eu aprendi com a vida C#m7 Bm7 Só tempo fecha ferida aberta C#m7 E sai da minha frente, eu tô com pressa F#m C#m7 Perdi muito tempo com as conversa F#m C#m7 Muito caô, caô de mudança, só promessa, mas acabou F#m C#m7 Não quero sua amizade, vida segue Bm7 C#m7 Beijo no rosto fica estranho quando as bocas se conhecem F#m C#m7 Se pá você merece alguém bem melhor que eu F#m C#m7 Sua mãe sempre te disse: Filha, ele nunca te mereceu F#m C#m7 Bm7 Pra mim já deu, Julieta e Romeu é so história C#m7 O que passamos, eu só guardo na memória porque F#m C#m7 No coração já foi esquecido F#m C#m7 Sonhos que foi nossos hoje em dia estão perdidos F#m C#m7 E hoje eu me sinto tão bem e te quero bem Bm7 C#m7 Bem longe de mim e pro infinito e além F#m C#m7 Se me queria, por que reclamava tanto? F#m C#m7 Acho que ela esperava um príncipe num cavalo branco F#m C#m7 Não tem, não existe Bm7 C#m7 Quando cê me conheceu, não era triste F#m C#m7 Se me amava por que reclamava tanto? F#m C#m7 Acho que ela esperava um príncipe num cavalo branco F#m C#m7 Não tem, não existe Bm7 C#m7 Quando cê me conheceu, não era triste
share this page

See Also: