Virus 27

Futuro incerto(Bass guitar)

Virus 27

roll up this ad to continue

	        introdušao (apenas baixo e a bateria) 
 
1------------------------ 
2------------------------ 
3-2-2-2-----3-3-3--2-2-2-       X4 
4------3-3-3------------- 
 
 
VERSO( Ú no suburbio das cidades, onde vejo realidade) 
1------------------------------- 
2------------------------------- 
3-2-22222-------3-33333--2-22222 
4--------3-33333---------------- 
 
REFRAO ( GOVERNO GOVERNO, GOVERNO NAO FAZ NADA) 
1-------------------------------- 
2-------------------------------- 
3--3-33333----------------------- 
4---------2-22222-5-55555--5-5555 
 
 
introdušao 
verso 
refrao 
verso 
refrao 
verso 
 
 
 
aaaaew,... bullets can┤t silense ideas! 
 
DIY! o/ 

	        

See Also: