E-Chords
Vinyl Theatre

30 Seconds(Bass guitar)

Vinyl Theatre

Pre-Chorus 
0:18 
'Won't break a sweat...' 
G|-------------------------------------------------------------------------------| 
D|---5---------------------------------------------------------------------------| 
A|-----5-5--3-5-3-3/7-7--5-7-5-2h3-3--3-3-3-2h3-3--3-3-3-------------------------| 
E|-------------------------------------------------------------------------------| 

G|-------------------------------------------------------------------------------| 
D|---5---------------------------------------------------------------------------| 
A|-----5-5--3-5-3-3/7-7--5-7-5-2h3-3--3-3-3-2h3-3-3-3-3-3-3-3--------------------| 
E|-------------------------------------------------------------------------------| 

Chorus 
0:34 
'There's a fear in my head...' 
G|-------------------------------------------------------------------------------| 
D|-------------------------------------------------------------------------------| 
A|-------------------------------------2-2-2-2-2-2-2-2-3-3-3-3-3-3-3-3-----------| (x4) 
E|---3-3-3-3-3-3-3-3-0h3-3-3-3-3-3-3-3-------------------------------------------| 

Post-Chorus 
1:05 
G|-------------------------------------------------------------------------------| 
D|-------------------------------------------------------------------------------| 
A|--------/7----3----------------------------------------------------------------| 
E|---3---------------------------------------------------------------------------| 

Verse 
1:12 
'There's a hole in...' 
G|-------------------------------------------------------------------------------| 
D|---------------------------------12----10--------------------------------------| 
A|---10-10--10-10-10--10-10-10--10----10----10-\-7-7--7-7-7--7\3-3--3-3-3--3-/---| (x2) 
E|-------------------------------------------------------------------------------| 

Pre-Chorus 
1:28 
'Won't break a sweat...' 
G|-------------------------------------------------------------------------------| 
D|---5---------------------------------------------------------------------------| 
A|-----5-5--3-5-3-3/7-7--5-7-5-2h3-3--3-3-3-2h3-3--3-3-3-------------------------| 
E|-------------------------------------------------------------------------------| 

G|-------------------------------------------------------------------------------| 
D|---5---------------------------------------------------------------------------| 
A|-----5-5--3-5-3-3/7-7--5-7-5-2h3-3--3-3-3-2h3-3-3-3-3-3-3-3--------------------| 
E|-------------------------------------------------------------------------------| 

Chorus 
1:43 
'There's a fear in my head...' 
G|-------------------------------------------------------------------------------| 
D|-------------------------------------------------------------------------------| 
A|-------------------------------------2-2-2-2-2-2-2-2-3-3-3-3-3-3-3-3-----------| (x4) 
E|---3-3-3-3-3-3-3-3-0h3-3-3-3-3-3-3-3-------------------------------------------| 

Bridge 
2:13 
'No...' 
G|-----9---9---9---9---5---5---4---4---11---11---11---11---11---11---11---11-----| 
D|-------------------------------------------------------------------------------| 
A|---7---7---7---7---3---3---2---2---9----9----9----9----9----9----9----9--------| 
E|-------------------------------------------------------------------------------| 

G|-----9---9---9---9---5---5---4---4---11---11---11---11---12---11---11---11-----| 
D|-------------------------------------------------------------------------------| 
A|---7---7---7---7---3---3---2---2---9----9----9----9----9----9----9----9--------| 
E|-------------------------------------------------------------------------------| 

G|-----9---9---9---9---5---5---4---4---11---11---11---11---11---11---11---11-----| 
D|-------------------------------------------------------------------------------| 
A|---7---7---7---7---3---3---2---2---9----9----9----9----9----9----9----9--------| (x2) 
E|-------------------------------------------------------------------------------| 

Chorus 
2:44 
'There's a fear in my head...' 
G|-------------------------------------------------------------------------------| 
D|-------------------------------------------------------------------------------| 
A|-------------------------------------2-2-2-2-2-2-2-2-3-3-3-3-3-3-3-3-----------| (x4) 
E|---3-3-3-3-3-3-3-3-0h3-3-3-3-3-3-3-3-------------------------------------------| 

G|-------------------------------------------------------------------------------| 
D|-------------------------------------------------------------------------------| 
A|-------------------------------------------------------------------------------|  
E|---3---------------------------------------------------------------------------| 

************************************ 

| h   Hammer-on 
| p   Pull-off 
| /   Slide up 
| \   Slide down 

************************************ 

roll up this ad to continue

share this page

See Also: