E-Chords
Tyler, The Creator

Running Out Of Time(Bass guitar)

Tyler, The Creator

Intro (repeats) 

G|---------------------------------------------------------------------------| 
D|---------------------------------------------------------------------------| 
A|2---2---------------------------------4--4-3-------------------------------| 
E|---------4---4----4-5-6---6------------------------------------------------| 

G|---------------------------------------------------------------------------| 
D|---------------------------------------------------------------------------| 
A|2---2---------------------------------4--4-3-------------------------------| 
E|---------4---4----4-5-6---6-6----6-----------------------------------------| 


verse 1 

G|---------------------------------------------------------------------------| 
D|---------------------------------------------------------------------------| 
A|4---4--4-----------------------0----0--------------------------------------| 
E|-----------3-------2---2--2----------4---4---------------------------------| 

G|---------------------------------------------------------------------------| 
D|--------------------------------4-----7--------8---------------------------| 
A|4----------------------------4------7---7-7--8---8-------------------------| 
E|-----------3---3--3----2---2-------5-----5--6-----6------------------------| 

Chorus 

G|---------------------------------------------------------------------------| 
D|---------------------------------------------------------------------------| 
A|2---2---------------------------------4--4-3-------------------------------| 
E|---------4---4----4-5-6---6------------------------------------------------| 


verse 2 
'livin in pretend...' 

Intrumental 

G|--------------------------------------------------------------------------------| 
D|--------------------------------------------------------------------------------| 
A|2---2--6p4-------------------------------4--4-3---------------------------------| 
E|-----------4---4----4-5-6---6---------------------------------------------------| 

G|---------------------------------------------------------------------------------| 
D|---------------------------------------------------------------------------------| 
A|----------------6--------------4--4-3--------------------------------------------| 
E|4---4----0---0-------------------------------------------------------------------| 


Rap Part 

G|---------------------------------------------------------------------------| 
D|---------------------------------------------------------------------------| 
A|4---4--4-----------------------0----0--------------------------------------| 
E|-----------3-------2---2--2----------4---4---------------------------------| 

G|---------------------------------------------------------------------------| 
D|--------------------------------4-----7--------8---------------------------| 
A|4----------------------------4------7---7-7--8-----------------------------| 
E|-----------3---3--3----2---2-------5-----5--6------------------------------| 


G|---------------------------------------------------------------------------| 
D|---------------0--------3-3--3---------------------------------------------| 
A|0-0-----0-0-----------3--------1---1--0------------------------------------| 
E|------4---------3-3--------------------------------------------------------| 

End 

************************************ 

| h   Hammer-on 
| p   Pull-off 

************************************ 

roll up this ad to continue

share this page

See Also: