E-Chords
Three Dog Night

Never Been To Spain(Bass guitar)

Three Dog Night

roll up this ad to continue

Key: E
Gtr I (E A D G) - 'Joe Schermie - Bass' 

  1st Verse 
  Q=86 
  4/4 
  Gtr I 
   W          Q.   E Q  E E   Q.   E Q  E E   Q.   E Q  E E 
G|----------|---------------|---------------|-----------9----| 
D|----------|-----------7---|-----------7---|-------------9--| 
A|----------|-------------7-|-------------7-|-7----7-7-------| 
E|----------|-5----5-5------|-5----5-5------|----------------| 


   Q.   E Q  E E   Q.   E Q  E E   Q.   E Q  E E   Q.   E Q  E E 
G|---------------|---------------|---------------|-----------9----| 
D|-----------9---|-----------7---|---------------|-------------9--| 
A|-7----7-7----7-|-------------7-|--------7--7-7-|-7----7-7-------| 
E|---------------|-5----5-5------|-5----5--------|----------------| 


   Q.   E Q  E E   Q.   E Q  E E   Q.   E Q  E E   Q.   E Q  E E 
G|---------------|---------------|---------------|-----------9----| 
D|-----------9---|---------------|---------------|-------------9--| 
A|-7----7-7----7-|-----------9---|-----------7---|-7----7-7-------| 
E|---------------|-7----7-7----7-|-5----5-5----5-|----------------| 


                 2nd - 5th Verses 
                 $ 
                 $$ 
   E E Q  H        Q.   E Q  E E   Q.   E Q  E E   Q.   E Q  E E 
G|-------------||----------------|---------------|-----------9----| 
D|-------------||o-----------7---|-----------7---|-------------9--| 
A|-7-----------||o-------------7-|-------------7-|-7----7-7-------| 
E|-------------||--5----5-5------|-5----5-5------|----------------| 


   Q.   E Q  E E   Q.   E Q  E E   Q.   E Q  E E   Q.   E Q  E E 
G|---------------|---------------|---------------|-----------9----| 
D|-----------9---|-----------7---|---------------|-------------9--| 
A|-7----7-7----7-|-------------7-|--------7--7-7-|-7----7-7-------| 
E|---------------|-5----5-5------|-5----5--------|----------------| 


                                                         To Coda 
                                                         To Double Coda 
   Q.   E Q  E E   Q.   E Q  E E   Q.   E Q  E E   Q.   E Q  E E 
G|---------------|---------------|---------------|-----------9----| 
D|-----------9---|---------------|---------------|-------------9--| 
A|-7----7-7----7-|-----------9---|-----------7---|-7----7-7-------| 
E|---------------|-7----7-7----7-|-5----5-5----5-|----------------| 


                                 Guitar Solo 
   1.             2. 
   E E Q  H        E E Q  H       Q.   E Q  E E   Q.   E Q  E E 
G|--------------||-------------||---------------|----------------| 
D|-------------o||-------------||-----------7---|-----------7----| 
A|-7-----------o||-7-----------||-------------7-|-------------7--| 
E|--------------||-------------||-5----5-5------|-5----5-5-------| 


   Q.   E Q  E E   Q.   E Q  E E   Q.   E Q  E E   Q.   E Q  E E 
G|-----------9---|---------------|---------------|----------------| 
D|-------------9-|-----------9---|-----------7---|----------------| 
A|-7----7-7------|-7----7-7----7-|-------------7-|--------7--7-7--| 
E|---------------|---------------|-5----5-5------|-5----5---------| 


   Q.   E Q  E E   Q.   E Q  E E   Q.   E Q  E E 
G|-----------9---|---------------|---------------| 
D|-------------9-|-----------9---|---------------| 
A|-7----7-7------|-7----7-7----7-|-----------9---| 
E|---------------|---------------|-7----7-7----7-| 


                                                Dal Segno Segno al Double Coda 
                            Dal Segno al Coda   Coda &  
   Q.   E Q  E E   Q.   E Q  E E   E E Q  H       E E Q  H 
G|---------------|-----------9---|-------------||--------------|| 
D|---------------|-------------9-|-------------||--------------|| 
A|-----------7---|-7----7-7------|-7-----------||-7------------|| 
E|-5----5-5----5-|---------------|-------------||--------------|| 


                 Outro 
 Double Coda && 
   E E Q  H        Q.   E Q  E E   Q.   E Q  E E   Q.   E Q  E E 
G|-------------||----------------|---------------|-----------9----| 
D|-------------||o-----------7---|-----------7---|-------------9--| 
A|-7-----------||o-------------7-|-------------7-|-7----7-7-------| 
E|-------------||--5----5-5------|-5----5-5------|----------------| 


   Q.   E Q  E E     Q.   E Q  E E 
G|----------------||---------------| 
D|-----------9---o||---------------| 
A|-7----7-7----7-o||-----------9---| 
E|----------------||-7----7-7----7-| 


   Q.   E Q  E E   Q.   E Q  E E   Q.   E Q  E E 
G|---------------|-----------9---|----------------*| 
D|---------------|-------------9-|-----------9----*| 
A|-----------7---|-7----7-7------|-7----7-7----7--*| 
E|-5----5-5----5-|---------------|----------------*| 

************************************ 
Duration Legend 

W - whole; H - half; Q - quarter; E - 8th; S - 16th; a - acciaccatura;  
+ - note tied to previous; . - note dotted; 
Duration letters will always appear directly above the note/fret number it represents the 
duration for.  Duration letters with no fret number below them represent rests. 
Uncapitalized letters represent notes that are staccato (1/2 duration).  
************************************ 
share this page

See Also: