E-Chords
Thin Lizzy

Sugar Blues(Bass guitar)

Thin Lizzy

Intro 
G|------------------------------| 
D|------------------------------| 
A|2--2-0-0-2-2-0-0-2-2-0-0-2-2-0| 
E|------------------------------| 

G|-------------------------| 
D|-------------------------| 
A|2--2--2--2-2-0-0-----2-2-|  
E|-----------------2-2-----| 

Verse 
G|-------------------------| 
D|-------------------------| 
A|2--2--2--2-2-0-0-----2-2-|  
E|-----------------2-2-----| 

Chorus 
G|--------------------------------| 
D|--------------------------------| 
A|0-0-0-0-0-0-0-0-----------------| 
E|----------------2-2-2-2-2-2-2-2-| 

Solo 
G|------------------------------| 
D|------------------------------| 
A|2--2-0-0-2-2-0-0-2-2-0-0-2-2-0| 
E|------------------------------| 

Bridge 
G|----------------------------------------------------------------| 
D|------------------------------------------------2-2-2-2-2-2-2-2-| 
A|0-0-0-0-0-0-0-0-----------------0-0-0-0-0-0-0-0-----------------| 
E|----------------2-2-2-2-2-2-2-2---------------------------------| 

G|-----------------------------------| 
D|2--0-----0-------------------------| 
A|------2-----2--0--2--0-----0-------| 
E|------------------------2------2--0| 

Outro 
G|------------------------------| 
D|------------------------------| 
A|2--2-0-0-2-2-0-0-2-2-0-0-2-2-0| 
E|------------------------------| 

roll up this ad to continue

share this page

See Also: