E-Chords
Thin Lizzy

Philomena(Bass guitar)

Thin Lizzy

Intro 
G|----------5--5--7--5------5------------7--7--9--7-----7-------7--9--9--9--7--| 
D|----5--7---------------7-----7--5---9--------------9-------9-----------------| 
A|-----------------------------------------------------------------------------| 
E|-----------------------------------------------------------------------------| 


G|-----------------------------------------------------------------------------| 
D|----9--7---7-9-7-----------7-9-7---------------------------------------------| 
A|------------------10---10---------10---7-------------------------------------| 
E|------------------------------------------10-10-10-10-10-10-10-10-10-10------| 



Verse 
G|--------------------------------2--2--2---0-------------------------------------------| 
D|---2--2----2---5---2---0-----0---------------2--0---2--2---2---5----------------------| 
A|-------------------------------------------------------------------2---2-2-2-2-2---5--| 
E|--------------------------------------------------------------------------------------| 


G|----------------------------------------------------------------------2--2--2--0----| 
D|---2--2---0---0---------------------------------------------------------------------| 
A|----------------3--3--2---2---2--2--5--5----------5-5-5-5-----5-5--------------------| 
E|-----------------------------------------------------------7-------------------------| 


G|---------------------------------------2-2-2--0--------------------------------------| 
D|---2--0----0---0-0-0-----0-----2---2-------------2-----------------0--0----2--2------| 
A|---------------------5-----------------------------2----2--2--2--2-------------------| 
E|-------------------------------------------------------------------------------------| 


G|--------------------------------------------------------------/------------------| 
D|---0----0---------------------------------------------------/--2-2-2-2-2-2-2-2---| 
A|------------3-----2--2---0--0---------0---0-0-0-0-0-0-0---/----------------------| 
E|-------------------------------3---3--------------------/------------------------| 


Guitar Solo 
G|-----------------------------------------------------------------------------------------------| 
D|-----------------------------------------------------------------------------------------------| 
A|----------------------------------------------------------0--2--2-2-2-2--0---------------------| 
E|----5-5---5-5-5-5--8--8---8--8-8-8-8-8-5--5--5--5-5---3---------------------3--2--5--5---------| 

G|-----------------------------------------------------------------2-2-2-0--------------------------| 
D|---------------------------------------------------------2---2------------2--0---0--0-0-0----0-0--| 
A|----------------------------0---0---------5---5-5--5--5------------------------------------2------| 
E|----3----3---1---1--0---0-----------3--3----------------------------------------------------------| 

G|--------2-2-2--0--------------------------------------------------------------------------| 
D|--2--2------------2---------------------0--0---2--2---4---4---5--5--4----4----------------| 
A|---------------------2---2--2--2--2--2--------------------------------------5--5----------| 
E|-----------------------------------------------------------------------------------3---3---| 

G|---------------------------------------------------------------------| 
D|---------------------------------------------------------------------| 
A|----5---5--5--5--5--5---5--5--5--5--5--5--5--------------------------| 
E|----------------------------------------------5--7-------------------| 


Outro 
G| ---------5--5--7-5---5-----------7-7--9-7-----7-----7--9-9-9-7----------------------------------------| 
D|---5--7------------7----7--5--9------------9-----9-------------9-7--7-9-7---------7-9-7--------------| 
A| ---------------------------------------------------------------------------10--10---------10----------| 
E|---------------------------------------------------------------------------------------------7---10--| 

roll up this ad to continue

share this page

See Also: