E-Chords
The Walker Brothers

No Regrets(Bass guitar)

The Walker Brothers

roll up this ad to continue

Key: E
Gtr I (E A D G) - 'Daryl Runswick - Double Bass' 

 Intro 
 Q=100 
  Gtr I 
   Q.   E H      Q.   E H      Q.   E H      Q.   E H 
G|-------------|-------------|-------------|-------------| 
D|-------------|-------------|-------------|-------------| 
A|-5----5-5----|-------------|-5----5-5----|-------------| 
E|-------------|-5----5-5----|-------------|-5----5-5----| 


   Q.   E H      Q.   E H      Q.   E Q  Q    Q.   E Q  E S S 
G|-------------|-------------|--------------|-----------------|| 
D|-------------|-------------|-----------5--|-----------------|| 
A|-5----5-5----|-------------|-5----5-5-----|-5----5-5--5-5-5-|| 
E|-------------|-5----5-5----|--------------|-----------------|| 


  1st & 2nd Verses 
     Q.   E H      Q.   E H      Q.   E E E E S S   Q.   E Q  E E 
G||--------------|-------------|------------------|----------------| 
D||o-------------|-------------|------------------|----------------| 
A||o-5----5-5----|-5----5-5----|-5----5-5-----5---|-5----5-5-------| 
E||--------------|-------------|----------5-7---7-|-----------5-7--| 


   Q.   E H      Q.   E H      Q.   E H      Q.   E Q  E E 
G|-------------|-------------|-------------|----------------| 
D|-------------|-------------|-------------|----------------| 
A|-5----5-5----|-5----5-5----|-5----5-5----|-5----5-5-------| 
E|-------------|-------------|-------------|-----------5-7--| 


   Q.   E H      Q.   E Q  Q    Q.   E +H       Q.   E +E  E Q 
G|-------------|--------------|---------------|------------------| 
D|-------------|--------------|---------------|------------------| 
A|-5----5-5----|-3----3-3--3--|------5-(5)----|-5----5-(5)-5-5---| 
E|-------------|--------------|-3-------------|------------------| 


   Q.   E Q.   E   Q.   E Q.   E   Q.   Q  Q.     Q.   Q  Q. 
G|---------------|--------6------|--------------|---------------|| 
D|--------4----5-|-7----9------7-|--------------|---------------|| 
A|-5----7--------|---------------|-5----5--5----|-5----5--5-----|| 
E|---------------|---------------|--------------|---------------|| 


 Chorus 
 Segno $ 
   E E Q  E Q  E   Q.   E Q  E E   E E Q  E Q  E   Q.   E Q  E E 
G|---------------|---------------|---------------|----------------| 
D|---------------|---------------|---------------|----------------| 
A|---5-5--5-5--5-|-5----5-5------|---5-5--5-5--5-|-5----5-5-------| 
E|---------------|-----------5-7-|---------------|-----------5-7--| 


   E E Q  E Q  E   Q.   E Q  E E   E E Q  E Q  E   Q.   E Q  E E 
G|---------------|---------------|---------------|----------------| 
D|---------------|---------------|---------------|----------------| 
A|---5-5--5-5--5-|-5----5-5------|---5-5--5-5--5-|-5----5-5-------| 
E|---------------|-----------5-7-|---------------|-----------5-7--| 


                                                         To Coda 
   E E Q  E Q  E   Q.   E Q  E E   Q.   E Q  E E   Q.   E Q  Q 
G|---------------|---------------|-------------4-|-5----5-5--5---| 
D|---------------|-5----5-5--5---|-5----5-5--7---|---------------| 
A|---5-5--5-5--5-|-------------5-|---------------|---------------| 
E|---------------|---------------|---------------|---------------| 


   1.,2.                            3. 
   E Q.   +H       E Q.   +H      3x E Q.   +H       E Q.   +H 
G|---------------|----------------||---------------|---------------|| 
D|---------------|---------------o||---------------|---------------|| 
A|-5-5----(5)----|-5-5----(5)----o||-5-5----(5)----|-5-5----(5)----|| 
E|---------------|----------------||---------------|---------------|| 


 Guitar Solo 
   E Q.   +Q   Q      Q  Q  Q  Q    Q  Q  Q  Q   3x Q  Q  Q  S S E 
G|----------------||--------------|--------------||----------------| 
D|----------------||o-------------|-------------o||----------4-5-7-| 
A|-5-5----(5)--5--||o-5--5--5--5--|-5--5--5--5--o||-5--5--5--------| 
E|----------------||--------------|--------------||----------------| 


   Q  Q  Q  Q    Q  Q  Q  Q    Q  Q  Q  Q    Q.   Q.   Q 
G|-------------|-------------|-------------|---------------| 
D|-------------|-------------|-------------|---------------| 
A|-5--5--5--5--|-5--5--5--5--|-3--3--3--3--|------5----5---| 
E|-------------|-------------|-------------|-7-------------| 


   Q  Q  Q  Q    Q.   E Q.   E   Q.   E Q.   E 
G|-------------|---------------|--------6------| 
D|-------------|--------4----5-|-7----9------7-| 
A|-5--5--5--5--|-5----7--------|---------------| 
E|-------------|---------------|---------------| 


                   Dal Segno al Coda 
   Q.   E Q.   E   Q.   E Q.   E 
G|---------------|--------6--------|| 
D|--------4----5-|-7----9------7---|| 
A|-5----7--------|-----------------|| 
E|---------------|-----------------|| 


 Coda & 
   E Q.   +H       E Q.   +H       E Q.   +E  E Q 
G|---------------|---------------|-----------------|| 
D|---------------|---------------|-----------------|| 
A|-5-5----(5)----|-5-5----(5)----|-5-5----(5)-5-5--|| 
E|---------------|---------------|-----------------|| 


  Outro 
     Q  Q  Q  Q    Q.   E E E E E   Q  Q  Q  Q    Q.   E E E E E  3x 
G||--------------|----------------|-------------|-----------------|| 
D||o-------------|----------------|-------------|----------------o|| 
A||o-5--5--5--5--|-5----5-5-------|-5--5--5--5--|-5----5-5-------o|| 
E||--------------|----------7-5-7-|-------------|----------7-5-7--|| 

************************************ 
Duration Legend 

W - whole; H - half; Q - quarter; E - 8th; S - 16th; a - acciaccatura;  
+ - note tied to previous; . - note dotted; 
Duration letters will always appear directly above the note/fret number it represents the 
duration for.  Duration letters with no fret number below them represent rests. 
Uncapitalized letters represent notes that are staccato (1/2 duration).  

|  (n)   -  note tied to previous 
************************************** 
share this page

See Also: