E-Chords
The Used

Greener With The Scenery.(Bass guitar)

The Used

roll up this ad to continue

verse 
G|---------------------| 
D|---------10------7---| 
A|0------8----8--5---5-| 
E|---------------------| 
 
G|----------| 
D|---10>----| 
A|8>-----5>-| 
E|----------| 
 
2nd verse 
G|-----------------------| 
D|-----------10------7---| 
A|0--5/12--8----8--5---5-| 
E|-----------------------| 
 
Chorus  
G|----------|         G|-----------------------| 
D|----------|  3x     D|-----------------------| 
A|8>--5>-7>-|         A|1-1111-3-3333-5-5555-7\| 
E|----------|         E|-----------------------| 
 
G|-------------------------| 
D|---10-----10-----7----7--| 
A|888---8888--8-555-5555--5| 
E|-------------------------| 
 
Outro 
G|-----------------| 
D|-----------------| 
A|1-1110-1110-1110-| 
E|-----------------| 
share this page

See Also: