E-Chords
The Superfine Dandelion

Janie's Place(Bass guitar)

The Superfine Dandelion

0:04 

G|------------------------------------------------| 
D|------------------------------------------------| 
A|5---------5-------------5---------5-------------| 
E|------------5---------5-------------5---------5-| 

G|------------------------------------------------------------------------------------------------| 
D|------------------------------------------------------------------------------------------------| x2 
A|5---------5-------------5---------5-------------5---------5-------------5---------5-------------| 
E|------------5---------5-------------5---------5-------------5---------5-------------5---------5-| 

G|------------------------------------------------------------------------------------------------| 
D|------------------------5---------5-8---------8-7---------7-5---------5-------------------------| 
A|5---------5-8---------8-------------------------------------------------8---------8-7---------7-| 
E|------------------------------------------------------------------------------------------------| 

0:30 

G|------------------------------------------------------------------------------------------------| 
D|------------------------------------------------------------------------------------------------| x2 
A|5---------5-------------5---------5-------------5---------5-------------5---------5-------------| 
E|------------5---------5-------------5---------5-------------5---------5-------------5---------5-| 

G|------------------------------------------------------------------------------------------------| 
D|------------------------5---------5-8---------8-7---------7-5---------5-------------------------| 
A|5---------5-8---------8-------------------------------------------------8---------8-7-----------| 
E|------------------------------------------------------------------------------------------------| 

0:53 

G|------------------------------------------------------------------------------------------------| 
D|------------------------------------------------------------------------------------------------| x2 
A|5---------5-------------5---------5-------------5---------5-------------5---------5-------------| 
E|------------5---------5-------------5---------5-------------5---------5-------------5---------5-| 

G|------------------------------------------------------------------------------------------------| 
D|------------------------5---------5-8---------8-7-----5-----------------7-----5-----------------| 
A|5---------5-8---------8-------------------------------------8-----7-----------------8-----7-----| 
E|------------------------------------------------------------------------------------------------| 

1:15 

G|------------------------------------------------------------------------------------------------| 
D|------------------------------------------------------------------------------------------------| x2 
A|5---------5-------------5---------5-------------5---------5-------------5---------5-------------| 
E|------------5---------5-------------5---------5-------------5---------5-------------5---------5-| 

G|------------------------------------------------------------------------------------------------| 
D|------------------------5---------5-8---------8-7-----5-----------------------------------------| 
A|5---------5-8---------8-------------------------------------8-----7-----5-----------------------| 
E|------------------------------------------------------------------------------8-----7-----5-----| 

1:38 

G|------------------------------------------------------------------------------------------------|. 
D|------------------------------------------------------------------------------------------------|. 
A|5---------5-------------5---------5-------------5---------5-------------5---------5-------------|. 
E|------------5---------5-------------5---------5-------------5---------5-------------5---------5-|. 
                                                                                                   . 
G|------------------------------------------------------------------------------------------------|. 
D|------------------------------------------------------------------------------------------------|. x2 
A|5---------5-------------5---------5-------------5---------5-------------5---------5-------------|. 
E|------------5---------5-------------5---------5-------------5---------5-------------5---------5-|. 
                                                                                                   . 
G|------------------------------------------------------------------------------------------------|. 
D|------------------------5---------5-8---------8-7---------7-5---------5-------------------------|. 
A|5---------5-8---------8-------------------------------------------------8---------8-7---------7-|. 
E|------------------------------------------------------------------------------------------------|. 

2:23 

G|------------------------------------------------------------------------------------------------| 
D|------------------------------------------------------------------------------------------------| x2 
A|5---------5-------------5---------5-------------5---------5-------------5---------5-------------| 
E|------------5---------5-------------5---------5-------------5---------5-------------5---------5-| 

G|------------------------------------------------------------------------------------------------------| 
D|------------------------5---------5-8---------8-7---------7-5---------5-------------------------------| 
A|5---------5-8---------8-------------------------------------------------8-----------7-----------5-----| 
E|------------------------------------------------------------------------------------------------------| 

roll up this ad to continue

share this page

See Also: