E-Chords
The Sidekicks

Fifi The Flea(Bass guitar)

The Sidekicks

roll up this ad to continue

Tuning: EADG 

0:10 

G|------------------------------------------------------------------------------------------------|. 
D|5-----------4-----------3-----------------------5-----------4-----------3-----------------------|. 
A|------------------------------------3-----------------------------------------------3-----------|. 
E|------------------------------------------------------------------------------------------------|. 
                                                                                                   . x2 
G|------------------------------------------------------------------------------------------------|. 
D|5-----------4-----------3-----------------------5-----------4-----------3-----------4-----------|. 
A|------------------------------------3-----------------------------------------------------------|. 
E|------------------------------------------------------------------------------------------------|. 

G|------------------------------------------------------------------------------------------------| 
D|5-----------4-----------3-----------------------5-----------4-----------3-----------------------| 
A|------------------------------------3-----------------------------------------------3-----------| 
E|------------------------------------------------------------------------------------------------| 

0:57 

G|------------------------------------------------------------------------------------------------|. 
D|5-----------4-----------3-----------------------5-----------4-----------3-----------------------|. 
A|------------------------------------3-----------------------------------------------3-----------|. 
E|------------------------------------------------------------------------------------------------|. 
                                                                                                   . x2 
G|------------------------------------------------------------------------------------------------|. 
D|5-----------4-----------3-----------------------5-----------4-----------3-----------4-----------|. 
A|------------------------------------3-----------------------------------------------------------|. 
E|------------------------------------------------------------------------------------------------|. 

G|------------------------------------------------------------------------------------------------| 
D|5-----------4-----------3-----------------------5-----------4-----------3-----------------------| 
A|------------------------------------3-----------------------------------------------3-----------| 
E|------------------------------------------------------------------------------------------------| 

1:43 

G|------------------------------------------------------------------------------------------------| 
D|5-----------4-----------3-----------------------5-----------4-----------3-----------------------| 
A|------------------------------------3-----------------------------------------------3-----------| 
E|------------------------------------------------------------------------------------------------| 

G|------------------------------------------------------------------------------------------------| 
D|5-----------4-----------3-----------------------5-----------4-----------3-----------4-----------| 
A|------------------------------------3-----------------------------------------------------------| 
E|------------------------------------------------------------------------------------------------| 

2:02 

G|------------------------------------------------------------------------------------------------| 
D|5-----------4-----------3-----------------------5-----------4-----------3-----------------------| 
A|------------------------------------3-----------------------------------------------3-----------| 
E|------------------------------------------------------------------------------------------------| 

G|------------------------------------------------| 
D|5-----------4-----------3-----------------------| 
A|------------------------------------3-----------| 
E|------------------------------------------------| 

G|------------------------------------------------------------------------| 
D|5-------------------4-------------------5-----------------------2---4---| 
A|------------------------------------------------------------5-----------| 
E|------------------------------------------------------------------------| 

G|------------------------------------------------------------| 
D|5-----------4-----------3-----------4-------------------5---| 
A|------------------------------------------------------------| 
E|------------------------------------------------------------| 
share this page

See Also: