E-Chords
The Physics House Band

Obelisk Monolith(Bass guitar)

The Physics House Band

Intro 

G|---------------------------------------------------------------------------| 
D|---------------------------------------------------------------------------| 
A|---------------------------------------------------------------------------| 
E|---------------------------------------------------------------------------| 

G|---------------------------------------------------------------------------| 
D|---------------------------------------------------------------------------| 
A|---------------------------------------------------------------------------| 
E|---------------------------------------------------------------------------| 


0:39 

G|--------------------------------------------------| 
D|o------------------------------------------------o| 
A|o------------------------4--5-------4--5-------4-o| x2 
E|-7--5-7--7--5-7--7--5-7--------5-7--------5-7-----| 

G|--------------------------------------------------| 
D|-9--7-9--9--7-9--9--7-9--7-----7-9--7--9--7-9--9--| 
A|----------------------------9---------------------| 
E|--------------------------------------------------| 

G|---------------------------------------------------------------------------------------| 
D|-7-9--9--7-9--7-----7-9--7-----7-9--7--------------------------4--5-(7)---4--5-(7)---4-| 
A|-----------------9----------9----------7--x-7--7--x-7--7--x-7----------7----------7----| 
E|---------------------------------------------------------------------------------------| 

G|---------------------------------------------------| 
D|--------------------------4--5-(7)---4--5-(7)---4--| 
A|--7--x-7--7--x-7--7--x-7----------7----------7-----| 
E|---------------------------------------------------| 
  
G|---------------------------------------------------------------------------------------| 
D|---------------------------------------------------------------------------------------| 
A|-5--x-5--5--x-5--5--x-5--5--5--x-5--5--7--x-7--7--x-7--7--x-7--7--7--x-7--7--7--x-7--7-| 
E|---------------------------------------------------------------------------------------| 

1:09 
G|---<7>------| 
D|---<7>------| 
A|------------| 
E|------------| 

1:12 

G|------------------------------------------| 
D|o--9-9-9-9-9--x6-----------------------o| 
A|o------------------7-7-7-7-7---5-5-5-5-5-o| x2 
E|------------------------------------------|  

G|---------7--------------------------------| 
D|o--9-9-9---9--x6-----------------------o| 
A|o------------------7-7-7-7-7---5-5-5-5-5-o| x2 
E|------------------------------------------|  


1:42 

G|--------------------------------------------7-----7-----9-----9-----| 
D|-----------7-9-7----------------7-9-7-------------------------------| 
A|-------5---------9-7--------5---------9-7-5---5-5---5-7---7-7---7---| 
E|-7-5-7----------------7-5-7-----------------------------------------| 

G|--------------------------------------------------------------------| 
D|-----------7-9-7----------------7-9-7-------------------------------| 
A|-------5---------9-7--------5---------9-7-6-----6-----6-----6-------| 
E|-7-5-7----------------7-5-7-----------------------------------------| 

G|--------------------------------------------7-----9-----10----------| 
D|-----------7-9-7----------------7-9-7-------------------------8-----| 
A|-------5---------9-7--------5---------9-7-5---5-7---7-8---8---------| 
E|-7-5-7----------------7-5-7---------------------------------6---6---| 

G|--------------------------------------------------------------------| 
D|-----------7-9-7----------------7-9-7-------------------------------| 
A|-------5---------9-7--------5---------9-7-6-----6-----6-----6-------| 
E|-7-5-7----------------7-5-7-----------------------------------------| 
                                             

2:05 
    Use three-finger rolls for groups in {} brackets 
G|-------------------------------------------------------------| 
D|-{7-7-7}--{7-7-7}--{7-7-7}---7---{7-7-7}---7---7---{8-8-8}---| 
A|-------------------------------------------------------------| 
E|-------------------------------------------------------------| 


2:09 

G|---------------------------------------------7-----------7-------------------------------------| 
D|o--9-9-9-9-9---9-9-9-9-9---------7-9---9-9-9---9---9-9-9---9---9-9-9-7-------------------------| 
A|o--------------------------5-7-9---------------------------------------9-8-7----7----5----5----| 
E|-----------------------------------------------------------------------------------------------|  

G|---------------------------------------------7-------------------------------------------------| 
D|o--9-9-9-9-9---9-9-9-9-9---------7-9---9-9-9---9---9-9-9-7-9---9-9-9-7-------------------------| 
A|o--------------------------5-7-9---------------------------------------9-9-8----9----5----7----| 
E|-----------------------------------------------------------------------------------------------|  


2:24 

G|------------------------------------------------------| 
D|------------------------------------------------------| 
A|------------------------------7---7---7---7---7---9---| 
E|--7---7---7---7---7---7---7---------------------------| 

G|------------------------------------------------------| 
D|------------------------------------------------------| 
A|--5---5---5---5---5---5---5---9---9---9---9---9---9---| 
E|------------------------------------------------------| 

G|-11-12-7----------------------------------------------| 
D|-----------7-9-11-----7-9-11-----------7---8--8-------| 
A|---------9--------7-9----------7---9------------------| 
E|------------------------------------------------------| 


2:37 

G|---------7-----------7-----------7-9-7-------7-----------7-----------7-------------------------| 
D|o--9-9-9---9---9-9-9---9---9-9-9-------9-9-9---9---9-9-9---9---9-9-9---9-----------------------| 
A|o--------------------------------------------------------------------------9---9---8-----------| 
E|---------------------------------------------------------------------------------------10------|  

G|--------------------------------------------7-----7-----9-----9-----| 
D|-----------7-9-7----------------7-9-7-------------------------------| 
A|-------5---------9-7--------5---------9-7-5---5-5---5-7---7-7---7---| 
E|-7-5-7----------------7-5-7-----------------------------------------| 

G|--------------------------------------------------------------------| 
D|-----------7-9-7----------------7-9-7-------------------------------| 
A|-------5---------9-7--------5---------9-7-6-----6-----6-----6-------| 
E|-7-5-7----------------7-5-7-----------------------------------------| 

G|--------------------------------------------7-----9------------------------------| 
D|-----------7-9-7----------------7-9-7-------------------7-----8------4-----------| 
A|-------5---------9-7--------5---------9-7-5---5-7---7--------------------4---5---| 
E|-7-5-7----------------7-5-7---------------------------5---5-6---6----------------| 

G|--------------------------------------------------------------------------------| 
D|-----------7-9-7----------------7-9-7-------------------------------------------| 
A|-------5---------9-7--------5---------9-7-6-----6-----6-----6---8---8---8---8---| 
E|-7-5-7----------------7-5-7-----------------------------------------------------| 

3:08 

G|----------------------------------------------------| 
D|----------------------------------------------------| 
A|----------------------------------5--5--5--7--7--7--| 
E|--7---7---7---7---7---7---7---7---------------------| 

G|----------------------------------------------------| 
D|----------------------------------------------7-----| 
A|----------------------------------5--5--5--7-----7--| 
E|--7---7---7---7---7---7---7---7---------------------| 

G|----------------------------------------------------| 
D|----------------------------------------------------| 
A|------------------x8--8-----------5--5--5--7--7--7--| 
E|--7---7---7---7-----------x1--1---------------------| 

G|----------------------------------------------------| 
D|----------------------------------------------------| 
A|----------------------------------5--5--5--7--7--7--| 
E|--7---7---7---7---7---7---7---7---------------------| 

G|--------------------------------------| 
D|--------------------------------------| 
A|--5--5--5--7--7--8--5--5--5--7--7--7--| 
E|--------------------------------------| 


3:32 
G|------------------------------------| 
D|o----------------------------------o| 
A|o-5-------7-------\2---------------o| 
D|o-----------------------------------| x3 

G|------------------------------------| 
D|o-----------------------------------| 
A|o-5-------7-------\2---2---2---2----| 
D|o-----------------------------------| 

G|------------------------------------| 
D|o----------------------------------o| 
A|o-5---5---7---7---\2---2---2---2---o| 
E|------------------------------------| x2 

G|------------------------------------| 
D|o-----------------------------------| 
A|o-5---5---7---8---\2---2---2---4----| 
E|------------------------------------| 

G|------------------------------------| 
D|o----------------------------------o| 
A|o-5---5---7---7---\2---2---2---2---o| 
E|------------------------------------| 

... 
... 
... 

*********************************** 

|   Harmonic 
| /   Slide-up 
| \   Slide-down 
| pb  Pre-bend 
| ~   Vibrato 
| .   Staccato 
| PM  Palm muting 

*********************************** 

roll up this ad to continue

share this page

See Also: