E-Chords
The Outfield

This Love Affair(Bass guitar)

The Outfield

Key: A
4-string bass, standard tuning  
7/8 time  

Intro:  
  guitar riff   A        'Two three four...'  
G:-------|-------|-------|----------|  
D:-------|-------|-------|----------|  
A:-------|-------|-------|----------|  
E:-------|-------|5------|------17\5|  

verse 1a:  
  A             C              G                    D  
G:-------------|-------------|---------------------|--------------|  
D:-------------|-------------|---------------------|--------------|  
A:-------------|3-3-3-3-3-3-3|/10-10-10-10-10-10-10|\5-5-5-5-5-5-5|  
E:5-5-5-5-5-5-5|-------------|---------------------|--------------|  

verse 1b:  
  A                     C              G                    D  
G:---------------------|-------------|---------------------|--------------|  
D:---------------------|-------------|---------------------|--------------|  
A:/12-12-12-12-12-12-12|3-3-3-3-3-3-3|/10-10-10-10-10-10-10|\5-5-5-5-5-5-5|  
E:---------------------|-------------|---------------------|--------------|  

verse 2 (Repeat 4x):  
'Hold me now...'  
  A             C             G             D  
G:-------------|-------------|-------------|-------------|  
D:-------------|-------------|-------------|-------------|  
A:-------------|3-3-3-3-3-3-3|-------------|5-5-5-5-5-5-5|  
E:5-5-5-5-5-5-5|-------------|3-3-3-3-3-3-3|-------------|  

Chorus:  
  'And this love affair...'    
  F             F             G             G    
G:-------------|-------------|-------------|--------------------|  
D:-------------|-------------|-------------|--------------------|  
A:-------------|-------------|-------------|10-10-10-10-10-10-10|  
E:1-1-1-1-1-1-1|1-1-1-1-1-1-1|3-3-3-3-3-3-3|--------------------|5------|*  

verse 1a '...heart...'  
Chorus  
verse 1a '...heart...'  
verse 2 (Repeat 2x) 'Tell me now...'  
Chorus  
verse 1a '...heart...'  
Chorus* guitar riff walk down  
verse 1a (Repeat 2x) 'Love affair...'  
   
Bridge:  
  'I feel so lonely...'  
  F#              F#              F#              F#    
G:-------|-------|-------|-------|-------|-------|-------|-------|  
D:-------|-------|-------|-------|-------|-------|-------|-------|  
A:9------|-------|9------|-------|9------|-------|9------|-------|  
E:-------|-------|-------|-------|-------|-------|-------|-------|  

verse 2 (Repeat 2x) 'Early morning...'  
Chorus  
verse 1a '...heart...'  
Chorus  
verse 1a (Repeat 4x) '...heart...'  

Outro:  
'Whoo...'  
  A             A             A              A             A  
G:-------------|-------------|--------------|-------------|-------------|  
D:-------------|-------------|--------------|-------------|-------------|  
A:-------------|-------------|10h12---------|-------------|-------------|  
E:5------------|5------------|--------------|5------------|5---------\0-|  


Notes:  
An easy to play rocker.  Use a pick with up & down strokes.  

*End Chorus with E:|5------| during guitar riff where noted.  

Tabbed 8/9/2007 by Scott Herzog at *.  Email with corrections or comments.  

/ = slide up  
\ = slide down  
h = hammer on 

roll up this ad to continue

share this page

See Also: