E-Chords
The Monkees

Tear Drop City(Bass guitar)

The Monkees

roll up this ad to continue

0:05 

G|----------------------------------------------------------------| 
D|6---------------6---------------6---------------6---------------| 
A|--------6---------------6---------------6---------------6-----6-| 
E|----------------------------------------------------------------| 

G|----------------------------------------------------------------| 
D|6---------------6---------------6---------------6---------------| 
A|--------6---------------6-----6---------6-------------------3---| 
E|----------------------------------------------------4---6-------| 

G|----------------------------------------------------------------| 
D|------------------------------------------------------------5---| 
A|4---------------4---------------6---------------6-------8-------| 
E|--------4---------------4---------------6-----------------------| 

G|--------------------------------------------------------------------------------| 
D|6---------------6---------------6---------------6---------------6---------------| 
A|--------6---------------6---------------6---------------6-----------------------| 
E|--------------------------------------------------------------------------------| 

0:28 

G|----------------------------------------------------------------| 
D|6---------------6---------------6---------------6---------------| 
A|--------6---------------6---------------6---------------6-------| 
E|----------------------------------------------------------------| 

G|----------------------------------------------------------------| 
D|6---------------6---------------6---------------6---------------| 
A|--------6---------------6---------------6-------------------3---| 
E|----------------------------------------------------4---6-------| 

G|----------------------------------------------------------------| 
D|------------------------------------------------------------5---| 
A|4---------------4---------------6---------------6-------8-------| 
E|--------4---------------4---------------6-----------------------| 

G|----------------------------------------------------------------| 
D|6---------------6---------------6---------------6---6-------6---| 
A|--------6---------------6---------------6---------------6-------| 
E|----------------------------------------------------------------| 

0:47 

G|----------------------------------------------------------------| 
D|----------------------------------------------------------------| 
A|7---7---7---7---7---7---7---7---7---7---7---7---7---7---7---7---| 
E|------7-------7-------7---------------7-------7-------7---------| 

G|----------------------------------------------------------------| 
D|----------------------------------------------------------------| 
A|7---7---7---7---7---7---7---7---9---9---9---9---9---9---8---7---| 
E|------7-------7-------7---------------9-------9-----------------| 

G|--------------------------------| 
D|--------------------------------| 
A|6---6---6---6---6---------------| 
E|------6-------6-----------------| 

1:01 

G|----------------------------------------------------------------| 
D|6---------------6---------------6---------------6---------------| 
A|--------6---------------6---------------6---------------6-------| 
E|----------------------------------------------------------------| 

G|----------------------------------------------------------------| 
D|6---------------6---------------6---------------6---------------| 
A|--------6---------------6---------------6-------------------3---| 
E|----------------------------------------------------4---6-------| 

G|----------------------------------------------------------------| 
D|------------------------------------------------------------5---| 
A|4---------------4-----------4---6---------------6-------8-------| 
E|--------4---------------4---------------6-----------------------| 

G|----------------------------------------------------------------| 
D|6---------------6---------------6---------------6---------------| 
A|--------6---------------6---------------6-------------------3---| 
E|----------------------------------------------------4---6-------| 

G|----------------------------------------------------------------| 
D|----------------------------------------------------------------| 
A|4---------------4---------------4---------------4---------------| 
E|--------4---------------4---------------4-----------------------| 

G|----------------------------------------------------------------| 
D|----------------------------------------------------------------| 
A|----------------------------------------------------------------| 
E|----------------------------------------------------------------| 

1:31 

G|----------------------------------------------------------------| 
D|----------------------------------------------------------------| 
A|7---7---7---7---7---7---7---7---7---7---7---7---7---7---7---7---| 
E|--------------7---------------7---------------7---------------7-| 

G|----------------------------------------------------------------| 
D|----------------------------------------------------------------| 
A|7---7---7---7---7---7---7---7---9---9---9---9---9---9---9---9---| 
E|--------------7-------------------------------9---------------9-| 

G|--------------------------------| 
D|--------------------------------| 
A|9---9---9---9---9---------------| 
E|--------------9-----------------| 

1:44 

G|----------------------------------------------------------------| 
D|----------------------------------------------7-9-----7---------| 
A|--------9-------------7-9---------------9---------------9-------| 
E|7---------------7---------------7-------------------------------| 

G|----------------------------------------------------------------| 
D|----------------------------------------------------------------| 
A|------7-9-------------7-9---------------9---9---------7-9-------| 
E|7---------------7---------------7---------------7---------------| 

G|----------------------------------------------------------------| 
D|------------7---9-----------------------------------------------| 
A|------7-9-------------7-9---9---------7-9-----9-------7-9-------| 
E|7-------------------------------7---------------7---------------| 

G|----------------------------| 
D|----------------------------| fades out here. 
A|------7-9-------------7-9---| 
E|7---------------7-----------| 
share this page

See Also: