E-Chords
The Monkees

I Wanna Be Free(Bass guitar)

The Monkees

roll up this ad to continue

Tabbed by: 6METAL6BASSIST6 
E-mail: [email protected] 

Tuning: EADG 

Fast version. 

G|----------------------------------------------------------------| 
D|----------------------------------------------------------------| x3 
A|----------------------------------------------------7-------7---| 
E|5-----------5---7h9-----7h9-----7-----------7---7h9-----7h9-----| 

G|----------------------------------------------------------------| 
D|----------------------------------------------------------------| 
A|7---7---7---7---7---7---7-------7---7---7---7---7---5---4-------| 
E|----------------------------7-------------------------------7---| 

0:17 

G|----------------------------------------------------------------| 
D|------------------------4---7-----------------------------------| x2 
A|----------------4---7-----------5-----------4---5-------4-------| 
E|5-----------7-----------------------------------------------7---| 

G|----------------------------------------------------------------| 
D|------------------------4---7-----------------------------------| 
A|----------------4---7-----------5-----------4---5-------7---5---| 
E|5-----------7---------------------------------------------------| 

G|----------------6-------------------------------4---------------| 
D|----------------------------------------------------------------| 
A|4-----------7-----------4-------2-----------5-----------2-------| 
E|------------------------------------------------------------5---| 

G|----------------------------------------------------------------| 
D|----------------5---5---4---3---2-------------------------------| 
A|--------2---5-----------------------4---2-----------------------| 
E|3---3---------------------------------------4---0---0---2---4---| 

0:38 

G|----------------------------------------------------------------| 
D|------------------------4---7-----------------------------------| x2 
A|----------------4---7-----------5-----------4---5-------4-------| 
E|5-----------7-----------------------------------------------7---| 

G|----------------------------------------------------------------| 
D|------------------------4---7-----------------------------------| 
A|----------------4---7-----------5-----------4---5-------7---5---| 
E|5-----------7---------------------------------------------------| 

G|----------------6-------------------------------4---------------| 
D|----------------------------------------------------------------| 
A|4-----------7-----------4-------2-----------5-----------2-------| 
E|------------------------------------------------------------5---| 

G|----------------------------------------------------------------| 
D|----------------5---5---4---3---2-------------------------------| 
A|--------2---5-----------------------4---2-----------------------| 
E|3---3---------------------------------------4---0---0---2---4---| 

1:00 

G|----------------------------------------------------------------| 
D|----------------------------------------------------------------| 
A|4-----------------------4-------2-----------------------2-------| 
E|------------4---4---------------------------2---2---------------| 

G|----------------------------------------------------------------| 
D|----------------------------------------------------------------| 
A|4-----------------------4-------5-----------------------5-------| 
E|------------4---4---------------------------5---5---------------| 

G|----------------------------------------------------------------| 
D|----------------------------------------------------------------| 
A|4-----------------------4-------2-----------------------2-------| 
E|------------4---4---------------------------2---2-----------5---| 

G|----------------------------------------------------------------| 
D|----------------5---5---4---3---2-------------------------------| 
A|--------2---5-----------------------4---2-----------------------| 
E|3---3---------------------------------------4---0---0---2---4---| 

1:17 

G|----------------------------------------------------------------| 
D|------------------------4---7-----------------------------------| x2 
A|----------------4---7-----------5-----------4---5-------4-------| 
E|5-----------7-----------------------------------------------7---| 

G|----------------------------------------------------------------| 
D|------------------------4---7-----------------------------------| 
A|----------------4---7-----------5-----------4---5-------7---5---| 
E|5-----------7---------------------------------------------------| 

G|----------------6-------------------------------4---------------| 
D|----------------------------------------------------------------| 
A|4-----------7-----------4-------2-----------5-----------2-------| 
E|------------------------------------------------------------5---| 

G|----------------------------------------------------------------| 
D|----------------5---5---4---3---2-------------------------------| 
A|--------2---5-----------------------4---2-----------------------| 
E|3---3---------------------------------------4---0---0---2---4---| 

1:38 

G|----------------------------------------------------------------| 
D|------------------------4---7-----------------------------------| x2 
A|----------------4---7-----------5-----------4---5-------4-------| 
E|5-----------7-----------------------------------------------7---| 

G|----------------------------------------------------------------| 
D|------------------------4---7-----------------------------------| 
A|----------------4---7-----------5-----------4---5-------7---5---| 
E|5-----------7---------------------------------------------------| 

G|----------------6-------------------------------4---------------| 
D|----------------------------------------------------------------| 
A|4-----------7-----------4-------2-----------5-----------2-------| 
E|------------------------------------------------------------5---| 

G|----------------------------------------------------------------| 
D|------------2---5---5---4---3---2-------------------------------| 
A|----2---5---------------------------4---2-----------------------| 
E|3-------------------------------------------4---0---0---2---4---| 

2:00 

G|----------------------------------------------------------------| 
D|------------------------4---7-----------------------------------| x2 
A|----------------4---7-----------5-----------4---5-------4-------| 
E|5-----------7-----------------------------------------------7---| 

G|----------------------------------------------------------------| 
D|------------------------4---7-----------------------------------| 
A|----------------4---7-----------5-----------4---5-------7---5---| 
E|5-----------7---------------------------------------------------| 

G|----------------6-------------------------------4---------------| 
D|----------------------------------------------------------------| 
A|4-----------7-----------4-------2-----------5-----------2-------| 
E|------------------------------------------------------------5---| 

G|----------------------------------------------------------------| 
D|----------------5---5---4---3---2---2---------------------------| 
A|--------2---5---------------------------2-----------------------| 
E|3---3---------------------------------------4---0---0---2---4---| 

2:21 Until fadeout. 

G|----------------------------------------------------------------| 
D|----------------------------------------------------------------| 
A|----------------------------------------------------7-------7---| 
E|5-----------5---7h9-----7h9-----7-----------7---7h9-----7h9-----| 
share this page

See Also: