E-Chords
The Internet

Palace Curse(Bass guitar)

The Internet

roll up this ad to continue

 
Verse 
G|--------|--------|--------|-------|---------------|| 
D|--------|--------|--------|-------|----0---3-0----|| 
A|-3------|-3------|-3------|-3-----|-1----------1--|| 
E|--------|--------|--------|-------|---------------|| 

Verse 
G|--------|--------|--------|-------|---------------|| 
D|--------|--------|--------|-------|----0---3-0----|| 
A|-3------|-3------|-3------|-3-----|-1----------1--|| 
E|--------|--------|--------|-------|---------------|| 

Chorus 
G|--------|--------|--------|-------|--------|| 
D|--------|--------|-9--p8--|-------|--------|| 
A|-9------|(9)-----|------9-|7------|-(7)----|| 
E|--------|--------|--------|-------|--------|| 

Verse 
G|--------|--------|--------|-------|---------------|| 
D|--------|--------|--------|-------|----0---3-0----|| 
A|-3------|-3------|-3------|-3-----|-1----------1--|| 
E|--------|--------|--------|-------|---------------|| 

Verse 
G|--------|--------|--------|-------|---------------|| 
D|--------|--------|--------|-------|----0---3-0----|| 
A|-3------|-3------|-3------|-3-----|-1----------1--|| 
E|--------|--------|--------|-------|---------------|| 

Chorus 
G|--------|--------|--------|-------|--------|| 
D|--------|--------|-9--p7--|-------|--------|| 
A|-9------|(9)-----|------9-|7------|-(7)----|| 
E|--------|--------|--------|-------|--------|| 

Verse 
G|--------|--------|--------|-------|---------------|| 
D|--------|--------|--------|-------|----2---5-2----|| 
A|-5------|-5------|-5------|-5-----|-3----------3--|| 
E|--------|--------|--------|-------|---------------|| 

G|--------|--------|--------|-------| 
D|--------|--------|--------|-------| 
A|-5------|-5------|-5------|-5-----| 
E|--------|--------|--------|-------| 

Break 

'CURSE' 

Chorus 
G|------------|------------|------------|------------------| 
D|------------|------------|------------|----------------1-| 
A|------------|-6--5--4----|------------|--------0--1--3---| 
E|-6-----4----|------------|-6-----4----|-2--2-------------| 

G|-------------------|---------------------10--| 
D|----------8-9-10---|---------------11/13-----| 
A|-----------------11|------------11-----------| 
E|-6-----4-----------|-11--10---9--------------| 

G|-------------|--------------| 
D|-------------|---------3----| 
A|-------------|-------0------| 
E|-6-----4--3--|-2------------| 

Verse 
G|-----------|-------------|------------|-------------10--8---------| 
D|-----------|-------------|------------|----------8--------11--10--| 
A|-4----4----|3-----3--3---|-7----------|-6-------------------------| 
E|-----x----x|-----x-------|-----------x|---------------------------| 

G|-----------|-------------|----------------|---------------------| 
D|-----------|-------------|----------------|---------------------| 
A|-4---------|-3-----------|/8--------------|/5-------------------| 
E|-----------|-------------|------8----1----|---------------------| 

Chorus 
G|------------|------------|------------|------------------| 
D|------------|------------|------------|------------------| 
A|------------|-6--5--4----|------------|--------0--1--3-6-| 
E|-6----4-----|------------|-6-----4----|-2----------------| 

G|-------------------|---------------------10--| 
D|----------8-9-10---|---------------11/13-----| 
A|-----------------11|------------11-----------| 
E|-6-----4-----------|-11--10---9--------------| 

G|-------------|--------------| 
D|-------------|---------3----| 
A|-------------|-------0------| 
E|-6-----4--3--|-2------------| 

Verse 
G|-----------|-------------|------------|-------------10--8---------| 
D|-----------|-------------|------------|----------8--------11--10--| 
A|-4---------|3------------|-7----------|-6-------------------------| 
E|-----------|-------------|------------|---------------------------| 

G|-----------|-------------|----------------|---------------------| 
D|-----------|-------------|----------------|---------------------| 
A|-4---------|-3-----------|/8--------------|/5-------------------| 
E|-----------|-------------|------8----1----|---------------------| 

Chorus 
G|-------------------|---------------------10--| 
D|----------8-9-10---|---------------11/13-----| 
A|-----------------11|------------11-----------| 
E|-6-----4-----------|-11--10---9--------------| 

G|-------------|--------------| 
D|-------------|---------3----| 
A|-------------|-------0------| 
E|-6-----4--3--|-2------------| 

Verse 
G|-----------|-------------|------------|-------------10--8---------| 
D|-----------|-------------|------------|----------8--------11--10--| 
A|-4---------|3------------|-7----------|-6-------------------------| 
E|-----------|-------------|------------|---------------------------| 

G|-----------|-------------|----------------|---------------------| 
D|-----------|-------------|----------------|---------------------| 
A|-4---------|-3-----------|/8--------------|/5-------------------| 
E|-----------|-------------|------8----1----|---------------------| 

Solo 
G|------------|------------|------------|----------------| 
D|------------|------------|------------|----------------| 
A|------------|-6--5--4----|------------|--------0-------| 
E|-6----4-----|------------|-6-----4----|-2--------------| 

G|------------|------------|------------|----------------| 
D|------------|------------|------------|----------------| 
A|------------|----5--4----|------------|--------0-------| 
E|---6--4-----|------------|-6-----4----|-2--------------| 

G|------------|------------|------------|----------------| 
D|------------|------------|------------|----------------| 
A|------------|-6--5--4----|------------|--------0-------| 
E|-6----4-----|------------|-6-----4----|-2--------------| 


| /  slide up 
| \  slide down 
|( ) tied note 
| p  pull-off 
share this page

See Also: