E-Chords
Tesla

Come To Me(Bass guitar)

Tesla

Intro                           x2 
G|---------------------------------|| 
D|---------------------------------|| 
A|---------------------------------|| 
E|--5--5/10--10/5--5/0--0/---------|| 

 Verse                          x4 
G|---------------------------------|| 
D|---------------------------------|| 
A|--0-0---5-5---0-0----------------|| 
E|--------------------0-0----------|| 

 Pre-Chorus                      x2 
G|---------------------------------|---------------|| 
D|------------------7--7-7---------|---------------|| 
A|--0--0-0--5--5-5----------5--5-5-|-0~--0/12--12~-|| 
E|---------------------------------|---------------|| 

 Chorus 
G|-----------------------------------------------------------------| 
D|-----------------------------------------------------------------| 
A|--0--0-0--7--7-7--7--7-7-------0--0-0--7--7-7--7--7-7-9--9-9-5---| 
E|-------------------------10~-------------------------------------| 

G|-------------------------------------------------|| 
D|-------------------------------------------------|| 
A|--5-5--5--5-5--0--0-0--7--7-7--7--7-7------------|| 
E|--------------------------------------10~--------|| 

 Verse                          x4 
G|---------------------------------|| 
D|---------------------------------|| 
A|--0-0---5-5---0-0----------------|| 
E|--------------------0-0----------|| 

 Pre-Chorus                      x2 
G|---------------------------------|---------------|| 
D|------------------7--7-7---------|---------------|| 
A|--0--0-0--5--5-5----------5--5-5-|-0~--0/12--12~-|| 
E|---------------------------------|---------------|| 

 Chorus 
G|-----------------------------------------------------------------| 
D|-----------------------------------------------------------------| 
A|--0--0-0--7--7-7--7--7-7-------0--0-0--7--7-7--7--7-7-9--9-9-5---| 
E|-------------------------10~-------------------------------------| 

G|-----------------------------------------------------------------| 
D|-----------------------------------------------------------------| 
A|--5-5--5--5-5--0--0-0--7--7-7--7--7-7-9--9-9-5--5-5--5--5-5--0---| 
E|-----------------------------------------------------------------| 

G|---------------------------------|| 
D|---------------------------------|| 
A|--0-0--7--7-7--7--7-7------------|| 
E|----------------------10~--------|| 

 Solo                                            x2 
G|-------------------------------------------------|| 
D|-------------------------------------------------|| 
A|--0--0-0--5--5-5--5--5-5-0--0-0------------------|| 
E|--------------------------------0--0-0--0--0-0---|| 

 After Solo                         x4 
G|------------------------------------|------------|| 
D|------------------------------------|------------|| 
A|------------------------------------|------------|| 
E|--5--5/10-10-10-10/5--5/0--0--0--0/-|-55/0.------|| 

 Pre-Chorus 
G|--------------------------------|----------------|| 
D|--------------------------------|----------------|| 
A|--0--0-0--5--5-5--0--0-0--------|-0~--0/12--12~--|| 
E|-------------------------0--0-0-|----------------|| 

 Chorus 
G|-----------------------------------------------------------------| 
D|-.---------------------------------------------------------------| 
A|-.0--0-0--7--7-7--7--7-7-------0--0-0--7--7-7--7--7-7-9--9-9-5---| 
E|-------------------------10~-------------------------------------| 
             x4 
G|-------------|--------------------------------------------------| 
D|------------.|--------------------------------------------------| 
A|-5-5--5--5-5.|-0--0-0--7--7-7--7--7-7------0--0-0--7--7-7--7--7-| 
E|-------------|------------------------10~-----------------------| 

Outro 
G|-----------------|| 
D|-----------------|| 
A|--7--------------|| 
E|----10~----------|| 



************************************ 

| /  Slide up 
| ~  Vibrato 
| x  Dead note 
| .   
Staccato 

************************************ 

roll up this ad to continue

share this page

See Also: