E-Chords
Taize

O Lord Hear My Prayer(Bass guitar)

Taize

roll up this ad to continue

Key: Em
Verse 
   Em      Em/D      Am/C    D         G/B     C         F/A     B 
G|-----9-------7---|-----5-------7---|-----4-------5---|-----------------| 
D|-----------------|-----------------|-----------------|-----7---------9-| 
A|-7-----7-5-----5-|-3-----3-5-----5-|-2-----2-3-----3-|-----------6-9---| 
E|-----------------|-----------------|-----------------|-5-----5-7-------| 
   1 + 2 + 3 + 4 +   1 + 2 + 3 + 4 +   1 + 2 + 3 + 4 +   1 + 2 + 3 + 4 + 

   Em      Em/D      Am/C    D         Em/G    Am7   B   Em 
G|-----9-------7---|-----5-------7---|-----------------|-----9s12-11-9-7h9-| 
D|-----------------|-----------------|-----5-------7s9-|---9---------------| 
A|-7-----7-5-----5-|-3-----3-5-----5-|-----------------|-7-----------------| 
E|-----------------|-----------------|-3-----3-5-------|-------------------| 
   1 + 2 + 3 + 4 +   1 + 2 + 3 + 4 +   1 + 2 + 3 + 4 +   1 + 2 +  3  + 4 + 

---------------------------------------------------------------------------- 
Option 2 

Verse 
   Em      Em/D      Am/C    D         G/B     C         F/A     B 
G|-----9-------7---|-----5-------7---|-----4-------5---|-----------------| 
D|-----------------|-----------------|-----------------|-----7---------9-| 
A|-7-----7s5-----5s|-3-----3s5-----5s|-2-----2s3-----3-|-----------6s9---| 
E|-----------------|-----------------|-----------------|-5-----5s7-------| 
   1 + 2 + 3 + 4 +   1 + 2 + 3 + 4 +   1 + 2 + 3 + 4 +   1 + 2 + 3 + 4 + 

   Em      Em/D      Am/C    D         Em/G    Am7   B   Em 
G|-----9-------7---|-----5-------7---|-----------------|-----9s12s11s9p7h9-| 
D|-----------------|-----------------|-----5-------7s9-|---9---------------| 
A|-7-----7s5-----5s|-3-----3s5-----5-|-----------------|-7-----------------| 
E|-----------------|-----------------|-3-----3s5-------|-------------------| 
   1 + 2 + 3 + 4 +   1 + 2 + 3 + 4 +   1 + 2 + 3 + 4 +   1 + 2 +  3  + 4 + 


| s = slide 
| h = hammer-on 
| p = pull off 
share this page

See Also: