E-Chords
Suzanne

You Try(Bass guitar)

Suzanne

roll up this ad to continue

G|----------------------------------------------------------------| 
D|7-----------7---7-----------7---4-----------4---4-----------4---| 
A|----------------------------------------------------------------| 
E|----------------------------------------------------------------| 

G|6-----------6---6-----------6-----------------------------------| 
D|--------------------------------6-----------6---6-----------6---| 
A|----------------------------------------------------------------| 
E|----------------------------------------------------------------| 

G|6-----------6---6-----------6---8-----------8-------------------| 
D|------------------------------------------------6-----------6---| 
A|----------------------------------------------------------------| 
E|----------------------------------------------------------------| 

G|6-----------6---6-----------6---7-----------7---9-----------9---| 
D|----------------------------------------------------------------| 
A|----------------------------------------------------------------| 
E|----------------------------------------------------------------| 

0:20 

G|----------------------------------------------------------------| 
D|7-----------7---7-----------7---4-----------4---4-----------4---| 
A|----------------------------------------------------------------| 
E|----------------------------------------------------------------| 

G|6-----------6---6-----------6-----------------------------------| 
D|--------------------------------6-----------6---6-----------6---| 
A|----------------------------------------------------------------| 
E|----------------------------------------------------------------| 

G|6-----------6---6-----------6---8-----------8-------------------| 
D|------------------------------------------------6-----------6---| 
A|----------------------------------------------------------------| 
E|----------------------------------------------------------------| 

G|6-----------6---6-----------6---| 
D|--------------------------------| 
A|--------------------------------| 
E|--------------------------------| 

0:38 

G|7-----------7---7-----------7---9-----------9---9-----------9---| 
D|----------------------------------------------------------------| 
A|----------------------------------------------------------------| 
E|----------------------------------------------------------------| 

G|9-----------9---9-----------9---| 
D|--------------------------------| 
A|--------------------------------| 
E|--------------------------------| 

G|----------------------------------------------------------------| 
D|----------------------------------------------------------------| 
A|9-----------9---9-----------9---9-----------9---9-----------9---| 
E|----------------------------------------------------------------| 

G|----------------------------------------------------------------| 
D|9-----------9---9-----------9---9-----------9---9-----------9---| 
A|----------------------------------------------------------------| 
E|----------------------------------------------------------------| 

G|9-----------9---9-----------9---9-------7-------6---------------| 
D|--------------------------------------------------------9-------| 
A|----------------------------------------------------------------| 
E|----------------------------------------------------------------| 

1:00 

G|----------------------------------------------------------------| 
D|7-----------7---7-----------7---4-----------4---4-----------4---| 
A|----------------------------------------------------------------| 
E|----------------------------------------------------------------| 

G|6-----------6---6-----------6-----------------------------------| 
D|--------------------------------6-----------6---6-----------6---| 
A|----------------------------------------------------------------| 
E|----------------------------------------------------------------| 

G|6-----------6---6-----------6---8-----------8-------------------| 
D|------------------------------------------------6-----------6---| 
A|----------------------------------------------------------------| 
E|----------------------------------------------------------------| 

G|6-----------6---6-----------6---7-----------7---9-----------9---| 
D|----------------------------------------------------------------| 
A|----------------------------------------------------------------| 
E|----------------------------------------------------------------| 

1:20 

G|----------------------------------------------------------------| 
D|7-----------7---7-----------7---4-----------4---4-----------4---| 
A|----------------------------------------------------------------| 
E|----------------------------------------------------------------| 

G|6-----------6---6-----------6-----------------------------------| 
D|--------------------------------6-----------6---6-----------6---| 
A|----------------------------------------------------------------| 
E|----------------------------------------------------------------| 

G|6-----------6---6-----------6---8-----------8-------------------| 
D|------------------------------------------------6-----------6---| 
A|----------------------------------------------------------------| 
E|----------------------------------------------------------------| 

G|6-----------6---6-----------6---| 
D|--------------------------------| 
A|--------------------------------| 
E|--------------------------------| 

1:37 

G|7-----------7---7-----------7---9-----------9---9-----------9---| 
D|----------------------------------------------------------------| 
A|----------------------------------------------------------------| 
E|----------------------------------------------------------------| 

G|9-----------9---9-----------9---| 
D|--------------------------------| 
A|--------------------------------| 
E|--------------------------------| 

G|----------------------------------------------------------------| 
D|----------------------------------------------------------------| 
A|9-----------9---9-----------9---9-----------9---9-----------9---| 
E|----------------------------------------------------------------| 

G|----------------------------------------------------------------| 
D|9-----------9---9-----------9---9-----------9---9-----------9---| 
A|----------------------------------------------------------------| 
E|----------------------------------------------------------------| 

G|9-----------9---9-----------9---9-------7-------6---------------| 
D|--------------------------------------------------------9-------| 
A|----------------------------------------------------------------| 
E|----------------------------------------------------------------| 

2:00 

G|----------------------------------------------------------------| 
D|7-----------7---7-----------7---4-----------4---4-----------4---| 
A|----------------------------------------------------------------| 
E|----------------------------------------------------------------| 

G|6-----------6---6-----------6-----------------------------------| 
D|--------------------------------6-----------6---6-----------6---| 
A|----------------------------------------------------------------| 
E|----------------------------------------------------------------| 

G|6-----------6---6-----------6---| 
D|--------------------------------| 
A|--------------------------------| 
E|--------------------------------| 

G|8-----------8-------------------6-----------6---6-----------6---| 
D|----------------6-----------6-----------------------------------| x2 
A|----------------------------------------------------------------| 
E|----------------------------------------------------------------| 

G|7---------------9-------------------| 
D|------------------------------------| 
A|--------------------------------9---| 
E|------------------------------------| 
share this page

See Also: