E-Chords
Stevie Ray Vaughan

Crossfire(Bass guitar)

Stevie Ray Vaughan

Crossfire 
Stevie Ray Vaughan 
By João Triblues 
 
 
 
Sequência até o Refrão 
 
G|---------------------------------| 
D|-----------0-0-----0-0---0---0-2-| 
A|---------2-------2-----2---2-----| 
E|---0-0-4-------------------------| 
 
 
Refrão 
 
G|-------------------|-------------------| 
D|-------------------|-------------------| 
A|-------------------|---0---0-0-0-0-0-0-| 
E|---3—--3-3-3-3-3-3-|-------------------| 
 
G|-------------------|-------------------| 
D|-------------------|-------------------| 
A|-----------------0-|--0-0-0-0----------| 
E|---3—--3-3-3-3-3---|-----------10\0----| 
 
Frase adicional logo após o Refrão (Entrada do Solo). 
 
G|-----1---------------| 
D|---2---2-0---0-------|   Volta há Seqüência até o final. 
A|-----------2---2-0---| 
E|-------------------3-| 
 
 
\ - slide down 
 
 
 
João Triblues 
http://www.triblues.com 
 

roll up this ad to continue

share this page

See Also: