E-Chords
Sinéad O'Connor

No Mans Woman(Bass guitar)

Sinéad O'Connor

roll up this ad to continue

verse 1      (x2) 
G|-----------------|-----------------|----------------|-----------------| 
D|-----------------|-----------------|----------------|-----------------| 
A|-----------------|---------5-5---7-|----------------|---------5-5---0-| 
E|-0---------0-0-3-|-5------5--------|-0---------0-0-3|-5------5--------| 
   1 & 2 & 3 & 4 &   1 & 2 & 3 & 4 &   1 & 2 & 3 & 4 &  1 & 2 & 3 & 4 & 

G|-----------------|-----------------|  
D|-----------------|-----------------|  
A|-3-------5-5-----|-----7-----9---7-|  
E|-----------------|-0-0------0------|  
   1 & 2 & 3 & 4 &   1 & 2 & 3 & 4 & 

verse 2 
G|-----------------|-----------------|----------------|-----------------| 
D|-----------------|-----------------|----------------|-----------------| 
A|---------7-------|---------5-5---7-|---------7------|---------5---5-7-| 
E|-0-0----0--0---3-|-5---------------|-0-0-0--0--0---3|-5------5--------| 
   1 & 2 & 3 & 4 &   1 & 2 & 3 & 4 &   1 & 2 & 3 & 4 &  1 & 2 & 3 & 4 & 

G|-----------------|-----------------|  
D|-----------------|-----------------|  
A|-----7-----------|---------5-5---0-|  
E|-0-0-------0-0-3-|-5------5--------|  
   1 & 2 & 3 & 4 &   1 & 2 & 3 & 4 &    

G|-----------------|-----------------|----------------|-----------------| 
D|-----------------|-----------------|----------------|-----------------| 
A|-3-------5-5-----|-----7--57-7---7|-3-------5-5----|-----7---579-7-| 
E|-----------------|-0-0----------0--|----------------|-0-0----0--------| 
   1 & 2 & 3 & 4 &   1 & 2 & 3 & 4 &   1 & 2 & 3 & 4 &  1 & 2 & 3 & 4 & 

Bridge 
G|-----------------|-----------------|-----------------|-----------------|  
D|-----------------|-----------------|-----------------|-----------------| 
A|-----------------|-6-6-6-----6---6-|-7-7-7-----7--7--|57-7-7---797-575-|  
E|-3-3-3-----3---3-|-----------------|----------0----0-|--------0--------|  
   1 & 2 & 3 & 4 &   1 & 2 & 3 & 4 &   1 & 2 & 3 & 4 &  a1 & 2 & 3 & 4 & 
share this page

See Also: