E-Chords
Simon & Garfunkel

Flowers Never Bend With The Rainfall(Bass guitar)

Simon & Garfunkel

roll up this ad to continue

Tuning: EADG 

0:06 

G|----------------------------------------------------------------| 
D|--------------------------------0-------0-----------------------| 
A|0-------0---2---4-------4-------------------2---0-------0---2---| 
E|----------------------------------------------------------------| 

G|----------------------------------------------------------------| 
D|----------------0-----------------------2---------------2-------| 
A|4-------4---------------4---2---0---------------0---------------| 
E|----------------------------------------------------------------| 

G|----------------------------------------------------------------| 
D|--------------------------------0-------------------------------| 
A|0-------0---2---4-------4---------------4---2---0-------0---2---| 
E|----------------------------------------------------------------| 

G|------------------------------------------------2-------1-------| 
D|----------------0-----------------------2-------------------4---| 
A|4-------4---------------4---2---0-------------------------------| 
E|----------------------------------------------------------------| 

G|--------------------------------------------------------------------------------| 
D|2---------------2---------------0-----------------------2---------------2---3---| 
A|--------2---------------2---------------4---2---0---------------0---------------| 
E|--------------------------------------------------------------------------------| 

0:29 

G|----------------------------------------------------------------| 
D|4---------------4-------4---2---0---------------0-------0---2---| 
A|--------4-------------------------------0-----------------------| 
E|----------------------------------------------------------------| 

G|----------------------------------------------------------------| 
D|4---------------4---------------------------4-------------------| 
A|--------4---------------4---3---2-------2-------2-------2---4---| 
E|----------------------------------------------------------------| 

G|--------------------------------| 
D|0---------------0---------------| 
A|--------0---------------4---2---| 
E|--------------------------------| 

G|------------------------------------------------| 
D|------------------------------------------------| 
A|0-----------------------------------------------| 
E|------------------------------------------------| 

0:43 

G|----------------------------------------------------------------| 
D|--------------------------------0-------------------------------| 
A|0-------0---2---4-------4---------------4---2---0-------0---2---| 
E|----------------------------------------------------------------| 

G|----------------------------------------------------------------| 
D|----------------0-----------------------2---------------2-------| 
A|4-------4---------------4---2---0---------------0---------------| 
E|----------------------------------------------------------------| 

G|----------------------------------------------------------------| 
D|--------------------------------0-------------------------------| 
A|0-------0---2---4-------4---------------4---2---0-------0---2---| 
E|----------------------------------------------------------------| 

G|----------------------------------------------------2---1-------| 
D|----------------0-----------------------2-------------------4---| 
A|4-------4---------------4---2---0---------------0---------------| 
E|----------------------------------------------------------------| 

G|--------------------------------------------------------------------------------| 
D|2---------------2---------------0-----------------------2---------------2---3---| 
A|--------2---------------2---------------4---2---0---------------0---------------| 
E|--------------------------------------------------------------------------------| 

1:06 

G|----------------------------------------------------------------| 
D|4---------------4-------4---2---0---------------0-------0---2---| 
A|--------4-------------------------------0-----------------------| 
E|----------------------------------------------------------------| 

G|----------------------------------------------------------------| 
D|4---------------4---------------------------4-------------------| 
A|--------4---------------4-------2-------2-------2-------2---4---| 
E|----------------------------------------------------------------| 

G|--------------------------------| 
D|0---------------0---------------| 
A|--------0---------------4---2---| 
E|--------------------------------| 

G|------------------------------------------------| 
D|------------------------------------------------| 
A|0-----------------------------------------------| 
E|------------------------------------------------| 

1:20 

G|----------------------------------------------------------------| 
D|--------------------------------0-------------------------------| 
A|0-------0---2---4-------4---------------4---2---0-------0---2---| 
E|----------------------------------------------------------------| 

G|----------------------------------------------------------------| 
D|----------------0-----------------------2---------------2-------| 
A|4-------4---------------4---2---0---------------0---------------| 
E|----------------------------------------------------------------| 

G|----------------------------------------------------------------| 
D|--------------------------------0-------0-----------------------| 
A|0-------0---2---4-------4-----------------------0-------0---2---| 
E|----------------------------------------------------------------| 

G|----------------------------------------------------2---1-------| 
D|----------------0-----------------------2-------------------4---| 
A|4-------4---------------4---2---0---------------0---------------| 
E|----------------------------------------------------------------| 

G|--------------------------------------------------------------------------------| 
D|2---------------2---------------0-----------------------2---------------2---3---| 
A|--------2---------------2---------------4---2---0---------------0---------------| 
E|--------------------------------------------------------------------------------| 

1:43 

G|----------------------------------------------------------------| 
D|4---------------4-------4---2---0---------------0-------0---2---| 
A|--------4-------------------------------0-----------------------| 
E|----------------------------------------------------------------| 

G|----------------------------------------------------------------| 
D|4---------------4---------------------------4-------------------| 
A|--------4---------------4-------2-------2-------2-------2---4---| 
E|----------------------------------------------------------------| 

G|------------------------------------| 
D|0---------------0-------------------| 
A|--------0---------------0-------0---| 
E|------------------------------------| 



2:04 

G|----| 
D|0---| 
A|----| 
E|----| 
share this page

See Also: