E-Chords
Screeching Weasel

High Ambitions(Bass guitar)

Screeching Weasel

G|----|----|----|----|----------------------------| 
D|----|----|----|----|----------------------------| 
A|----|----|----|----|--7-----7--7--7--7--7--7----| 
E|----|----|----|----|----------------------------| 


G|----------------------------|----------------------------| 
D|----------------------------|----------------------------| 
A|--7--7--7--7-----7--7-------|--7-----7--7--7--7--7--7----| 
E|----------------------------|----------------------------| 


G|----------------------------|----------------------------| 
D|----------------------------|----------------------------| 
A|--7--7--7--7-----7--7-------|--7-----7--7--7--7--7--7----| 
E|----------------------------|----------------------------| 


G|----------------------------|----------------------------| 
D|----------------------------|----------------------------| 
A|--7--7--7--7-----7--7-------|--7-----7--7--7--7--7--7----| 
E|----------------------------|----------------------------| 


G|----------------------------| 
D|----------------------------| 
A|--7--7--7--7-----7--7-------| 
E|----------------------------| 


G|----------------------------------------------------| 
D|-----------------------------------7----------------| 
A|--7-----7-----7-----7-----10----------------10------| 
E|----------------------------------------------------| 


G|----------------------------------------------------| 
D|-----------------------------------7----------------| 
A|--7-----7-----7-----7-----10----------------10------| 
E|----------------------------------------------------| 


G|----------------------------------------------------| 
D|-----------------------------------7----------------| 
A|--7-----7-----7-----7-----10----------------10------| 
E|----------------------------------------------------| 


G|----------------------------------------------------| 
D|-----------------------------------7----------------| 
A|--7-----7-----7-----7-----10----------------10------| 
E|----------------------------------------------------| 


G|----------------------------------------------------| 
D|-----------------------------------7----------------| 
A|--7-----7-----7-----7-----10----------------10------| 
E|----------------------------------------------------| 


G|----------------------------------------------------| 
D|-----------------------------------7----------------| 
A|--7-----7-----7-----7-----10----------------10------| 
E|----------------------------------------------------| 


G|----------------------------------------------------| 
D|--7-----7-----7-----7-----9--------9--------9-------| 
A|----------------------------------------------------| 
E|----------------------------------------------------| 


G|----------------------------| 
D|--7--7--7--7--9--9--9--9----| 
A|----------------------------| 
E|----------------------------| 


G|----------------------------------------------------| 
D|--7-----7-----7-----7-----9--------9--------9-------| 
A|----------------------------------------------------| 
E|----------------------------------------------------| 


G|----------------------------| 
D|--7--7--7--7--9--9--9--9----| 
A|----------------------------| 
E|----------------------------| 


G|----------------------------------------------------------------------------| 
D|----------------------------------------------------------------------------| 
A|--7--------7--------7--------7--------7-----7-----7-----7--------7----------| 
E|----------------------------------------------------------------------------| 


G|----------------------------------------------------------------------------| 
D|----------------------------------------------------------------------------| 
A|--7--------7--------7--------7--------7-----7-----7-----7--------7----------| 
E|----------------------------------------------------------------------------| 


G|----------------------------------------------------------------------------| 
D|----------------------------------------------------------------------------| 
A|--7--------7--------7--------7--------7-----7-----7-----7--------7----------| 
E|----------------------------------------------------------------------------| 


G|----------------------------------------------------------------------------| 
D|----------------------------------------------------------------------------| 
A|--7--------7--------7--------7--------7-----7-----7-----7--------7----------| 
E|----------------------------------------------------------------------------| 


G|----------------------------------------------------| 
D|-----------------------------------7----------------| 
A|--7-----7-----7-----7-----10----------------10------| 
E|----------------------------------------------------| 


G|----------------------------------------------------| 
D|-----------------------------------7----------------| 
A|--7-----7-----7-----7-----10----------------10------| 
E|----------------------------------------------------| 


G|----------------------------------------------------| 
D|-----------------------------------7----------------| 
A|--7-----7-----7-----7-----10----------------10------| 
E|----------------------------------------------------| 


G|----------------------------------------------------| 
D|-----------------------------------7----------------| 
A|--7-----7-----7-----7-----10----------------10------| 
E|----------------------------------------------------| 


G|----------------------------------------------------| 
D|-----------------------------------7----------------| 
A|--7-----7-----7-----7-----10----------------10------| 
E|----------------------------------------------------| 


G|----------------------------------------------------| 
D|-----------------------------------7----------------| 
A|--7-----7-----7-----7-----10----------------10------| 
E|----------------------------------------------------| 


G|----------------------------------------------------| 
D|--7-----7-----7-----7-----9--------9--------9-------| 
A|----------------------------------------------------| 
E|----------------------------------------------------| 


G|----------------------------| 
D|--7--7--7--7--9--9--9--9----| 
A|----------------------------| 
E|----------------------------| 


G|----------------------------------------------------| 
D|--7-----7-----7-----7-----9--------9--------9-------| 
A|----------------------------------------------------| 
E|----------------------------------------------------| 


G|----------------------------|----------------------------|----------------|| 
D|--7--7--7--7--9--9--9--9----|----------------------------|----------------|| 
A|----------------------------|--7--7--7--7--7--7--7--7----|--7-------------|| 
E|----------------------------|----------------------------|----------------|| 

roll up this ad to continue

share this page

See Also: